Аккорды SR-71 - Kick Me When Im High

Добавлено: @romashka
Дата добавления: 26 Декабря 2015г.
Рейтинг:
0.0
Просмотров: 133
Транспонировать - +
|-----------------------------------------------
|-----------------------------------------------
|-8--8-8-8-8-8-8-12-10-8-5--5-5-5-5-5-5-8-10-12-
|-8--8-8-8-8-8-8-12-10-8-5--5-5-5-5-5-5-8-10-12-
|-6--6-6-6-6-6-6-10-8--6-3--3-3-3-3-3-3-6-8--10-
|-----------------------------------------------

|----------------------------------------
|----------------------------------------
|----------------12-10-8-12-10-8-12-10-8-
|-8--8-8-8-8-8-8-12-10-8-12-10-8-12-10-8-
|-8--8-8-8-8-8-8-10-8--6-10-8--6-10-8--6-
|-6--6-6-6-6-6-6-------------------------


Verse (x2)

|----------------------------------------------------------
|----------------------------------------------------------
|-8--8-8-8-8-8-8-8-8-5--5-5-5-5-5-5-5-5--------------------
|-8--8-8-8-8-8-8-8-8-5--5-5-5-5-5-5-5-5-8--8-8-8-8-8-8-8-8-
|-6--6-6-6-6-6-6-6-6-3--3-3-3-3-3-3-3-3-8--8-8-8-8-8-8-8-8-
|---------------------------------------6--6-6-6-6-6-6-6-6-

|------------------
|------------------
|------------------
|-6--6-6-6-6-6-6-6-
|-6--6-6-6-6-6-6-6-
|-4--4-4-4-4-4-4-4-

comments powered by Disqus
Наверх