Аккорды ssshhhiiittt! - Зверь

Добавлено: @romashka
Дата добавления: 17 Сентября 2018г.
Рейтинг:
0.0
Просмотров: 26
Транспонировать - +
Куплет 1:
      Gm
я не помню 
Em                   Bm
как я оказался в лесу, 
Bbm
нет тропы, куда я иду
      Gm
в темноте, 
Em                 Bm
среди холодных ветров 
Bbm
мне страшно, я умирать не готов
    Gm
спереди 
Em          Bm
и сзади трава,
Bbm
деревья смотрят все на меня,
      Gm
мне не спрятаться, 
Em                 Bm
не убежать и печально, 
Bbm
что мне есть что терять

Гитара 1: (верхний голос)
1|--15-15/14--14-14/12--12-12/10--10-10/8--8-8-8-8--8-8-7-7-7-7-5-7-
2|------------------------------------------------------------------

1|--15-15/14--14-14/12--12-12/10--10-10/8--8-8-8-8--8-8-7-7-5-5-5-5-7-
2|--------------------------------------------------------------------

Гитара 2: (нижний голос)
1|-----------------------------------------------------------
2|--3-3-3-3-3-3-3/5-5-5-5-5-5-5-5-5/7-7-7-7-7-7-7-7/8-8-8-8-8 

1|-----------------------------------------------------------
2|--3-3-3-3-3-3-3/5-5-5-5-5-5-5-5-5/7-7-7-7-7-7-7-7/8-8-8-8-8 

Куплет 2:
      Gm
на пути вдруг 
Em                Bm
встал странный зверь,
Bbm
он говорит: «меня послушай и верь,
      Gm
в лесу так много 
Em           Bm
странных зверей,
Bbm
но нет ни одного страннее людей,
      Gm
если хочешь — 
Em              Bm
можешь с нами жить,
Bbm
здесь ты сможешь собою быть,
      Gm
а если нет — 
Em              Bm
тебя придётся убить
Bbm
и навсегда про тебя забыть»

Припев: 
B5           G5
больше нет страха, 
             E5
больше нет злобы, 
              G5
есть только звери такие как я,
B5           G5              E5
теперь как дома, и не знаю кто я, 
             G5
я чувствую только лес и себя,
B5           G5
больше нет неба, 
             E5
больше нет солнца,
             G5
есть лишь болото, деревья и я,
B5           G5
теперь как дома, 
             E5
и не знаю кто я, 
             G5
я чувствую только лес и себя.

Гитара 1: x2 
1|--10-10-10-10--8-8-8-8--7-7-7---8---8-8-8---------------------------------------------
2|---------------------------------------------7-7-7-7--9-9-9-9--11-11-11--12---12-12-12

1|--10-10-10-10--8-8-8-8--7-7-7---8---8-8-8---------------------------------------------
2|---------------------------------------------7-7-7-7--9-9-9-9--7-7-7--11---11-11-11---

B5         G5
где я? кто я?
             E5
что ждёт дальше?
             G5
где я? кто я? кто, кто скажет?
B5         G5
где я? кто я?
             E5
что ждёт дальше? 
             G5
где я? кто я? кто потом скажет?

Припев: 
B5           G5
больше нет страха, 
             E5
больше нет злобы, 
              G5
есть только звери такие как я,
B5           G5              E5
теперь как дома, и не знаю кто я, 
             G5
я чувствую только лес и себя,
B5           G5
больше нет неба, 
             E5
больше нет солнца,
             G5
есть лишь болото, деревья и я,
B5           G5
теперь как дома, 
             E5
и не знаю кто я, 
             G5
я чувствую только лес и себя.

Конец: B5 G5 E5 G5 | B5         

Аккорды повторяются на протяжении всей песни, 
только в припеве аккорды меняются на квинты

В табулатуре / - это слайд
comments powered by Disqus
Наверх