Аккорды «Stabbing Westward»

Stabbing Westward
Впервые группа собралась в 1985 году, когда Hall и Flakus, бывшие студенты Western Illinois University, переехали из провинциального Макомба в Чикаго. Вскоре к парням присоединился Sellers, альтернативная готик–банда которого неоднократно принимала участие в "чесе" STABBING WESTWARD по чикагским клубам. Позже в состав группы входили и выходили из оного такие музыканты, как Chris Vrenna (NINE INCH NAILS), David Suycott и Stuart Zeichman (оба из FILTER). Но из–за того, что команда всегда искала лучших… Читать полностью... Впервые группа собралась в 1985 году, когда Hall и Flakus, бывшие студенты Western Illinois University, переехали из провинциального Макомба в Чикаго. Вскоре к парням присоединился Sellers, альтернативная готик–банда которого неоднократно принимала участие в "чесе" STABBING WESTWARD по чикагским клубам. Позже в состав группы входили и выходили из оного такие музыканты, как Chris Vrenna (NINE INCH NAILS), David Suycott и Stuart Zeichman (оба из FILTER). Но из–за того, что команда всегда искала лучших музыкантов вместо "лучших с правильным отношением к игре", STABBING WESTWARD превратились в столь интересный коллектив. "Существуют люди двух типов. Одни потребляют музыку "с ложечки", подаваемую коммерческими радиостанциями или MTV, другие же пребывают в активных поисках интересной музыки, которая действительно что–то для них значит. Я думаю, что именно последние и нашли нас..." Christopher Hall (STABBING WESTWARD). STABBING WESTWARD: Christopher Hall (вокалы, гитара), Walter Flakus (клавишные, программирование), Jim Sellers (бас), Mark Eliopulos (гитара) и Andy Kubiszewski (ударные, программирование, бэк–вокалы). После выпуска альбома "STABBING WESTWARD" в 2001 году, группа распалась перед записью нескольких LP 9 февраля 2002 года. Скрыть...
Популярные аккорды Stabbing Westward:
алфавиту | просмотрам | случайно
  • Drop D Tuning...
    
    D
    A
    D
    G
    B
    e
    
    The riff...
    
    -------------------------------------------------------------------|
    -------------------------------------------------------------------|
    -------------------------------------------------------------------|
    -------------------------------------------------------------------|
    -----3/5-5-x-5-x-5-3/5-3-x-3-x-3-5-x-3-x-3-x-3-x-3-5-x-5-3-x-3-x-3-|
    -0-0---------------------------------------------------------------|
    
    -----------------------|
    -----------------------|
    -----------------------|
    -----------------------|
    -3-x-3-3---------------|
    ---------7-9-7-5-3-1-0-|
    
    
    The…
  • Guitar tuned up half a key(!), i.e. 1/4 of a step.
    
    VERSE
    
    Am    G                 D
    And now you've grown to hate me
    Even more than you have grown to hate yourself
    Has it really made a difference?
    Am               G…
  • LEGEND:
    
    ^11   - bend the strings up as you slide down from the 9th fret to 
            - the 11th
    
           - slide down to indicated frets from previous chord.
    /       - slide up to indicated frets from previous chord.
    
    (The…
  • The tuning is 1/2 step down
    
           Eb
           Ab
           Db
           Gb
           Bb
           eb
    
    Chords used...
    
      F#  | E | A | D | E2| F#2 | D2 | E3|
      ----|---|---|---|---|-----|----|---|--------------|
      ----|---|---|---|---|-----|----|---|--------------|…
  • Tuning: Dropped-D, down one full step (low to high: C G C F A D)
    
    The song starts with some weird synthesized percussion noises and then this part begins.
    
    (a) Intro: play once
    
    (i) play once
    
    |-------------|
    |-------------|
    |-------------|
    |-12-13-12-10-|
    |-12-13-12-10-|
    |-12-13-12-10-|
    
    (ii)…
  • Drop D Tuning...
    
    D
    A
    D
    G
    B
    e
    
    There is basicaly only two riffs to this song...
    
    The intro...
    
    *Played the second half of the intro...
    I am not sure if it is correct, but they are the closest
    sounding notes to the record,…
  • Tuning: Drop D (D A D G)
    
    
    Riff 1
    
    G|-------1------------2----|
    D|----------2--------------|
    A|--4------------0---------|
    D|-------------------------|
    
    
    Riff 2
    
    G|-------------------------|
    D|--------------------2-0--|
    A|-------4-----------------|
    D|--4-------4----0---------|
    
    
    Riff…
  • Drop D tuning, 1/2 step down
    
    Db
    Ab
    Db
    Gb
    Bb
    eb
    
    intro...  This riff is played a lot throughout the
    song. so listen for it... This is also the ending
    of the song, the E and the bending of the note not
    the Bb and C.
    
      E
    -----------------------------------------------------|
    -----------------)----------------)---------------)--|
    --------------3-3--------------3-3-------------3-3---|
    --2-2-2-X-X-X------2-2-2-X-X-X------2-2-2-X-X-X------|
    --2-2-2-X-X-X------2-2-2-X-X-X------2-2-2-X-X-X------|
    --2-2-2-X-X-X------2-2-2-X-X-X------2-2-2-X-X-X------|…
  • RIFF 1                                                                  
    ------------------------------------------------------------------------
    ------------------------------------------------------------------------
    ------------------------------------------------------------------------
    2-----2-----2-----2--2--4-----4-----4-----4--4--5-----5-----5-----5-----…
  • Tuning: Standard  
    
    
    Intro/Verse
    |E|---2--------2------0--------3----  
    |B|---3--------3------2--------3----  
    |G|---2--------4------2--------0----  
    |D|-------------------2--------0----
    |A|----------------------------2----…
  • Tuning: D A D G
    
    This is the whole song!!  Just play this over and over!
    G:-----------------------------------------------
    D:-----------------------------------------------
    A:-----------------------------------------------
    D:0-0-0-0-0-0-0-0-0-0-0-0-3-3-3-3-3-3-3-3-3-3-3-3
    
    G:-----------------------------------------------
    D:-----------------------------------------------
    A:1-1-1-1-1-1-1-1-1-1-1-1------------------------
    D:------------------------2-2-2-2-2-2-2-2-3-3-2-2…
  • The bass thing in the intro and 1st verse is really a synth
    anything on the E string works.
    
    1st chorus
    G
    D
    A55555555        55555555        55555555        55555555 77777777
    E        22222222        22222222        22222222
    
    2nd…
  • Standard Tuning
    
    E
    A
    D
    G
    B
    e
    
    The Chords...
    
    | E | F |  G | F# | A2 | C  | A | D |
    |---|---|----|----|----|----|---|---|
    |---|---|----|----|----|----|---|---|
    |-9-|-10|-12-|-11-|-14-|-9--|-6-|-7-|
    |-9-|-10|-12-|-11-|-14-|-10-|-7-|-7-|
    |-7-|-8-|-10-|-9--|-12-|-10-|-7-|-5-|
    |---|---|----|----|----|-8--|-5-|---|…
  • Drop D Tuning
    
    D
    A
    D
    G
    B
    e
    
    Play that, a few times then the riff ends with
    ----------------------------------------------------------|
    ----------------------------------------------------------|
    ----------------------------------------------------------|
    -2-2-0-2-0-2-3-2------5-5-5-5-5-5-5-5-6-6-6-6-6-6-6-6-0-x-|
    -2-2-0-2-0-2-3-2------5-5-5-5-5-5-5-5-6-6-6-6-6-6-6-6-0-x-|
    -2-2-0-2-0-2-3-2------5-5-5-5-5-5-5-5-6-6-6-6-6-6-6-6-0-x-|
    
    The…
  • Intro bass line:
    |---------------------|
    |---------------------|
    |-0-3-----------------|
    |-----2--0-2-0--2--2--|
    
    
    Chorus
       I think i woke up screaming,(screaming,) 
    |--------------------------------------------|
    |--------------------------------------------|
    |-2-4-----4---4---4---5----------5-----------|
    |-2-4-----4---4---4---5---4------5----4------|
    |-0h2-----2---2---2---3---4------3----4------|
    |-------------------------2-----------2------|…
  • Drop D Tuning...
    
    D
    A
    D
    G
    B
    e
    
    Intro, and played at other parts of the song...
    
    The 4's are harmonics over the 4th fret on those strings...
    if you don't know how to play harmonics, email me and i will
    tell you
    
    -4-4-4-4-4-4------------------|
    -4-4-4-4-4-4------------------|
    -4-4-4-4-4-4--7---------------|
    -4-4-4-4-4-4--7---------------|
    --------------5---------------|
    --------------0---------------|
    
    I…
  • Tune Down 1/2 step
    
    Eb
    Ab
    Db
    Gb
    Bb
    eb
    
    
    The intro, bend each chord slightly. (Clean)
    
     G  Bb A  G#
    --------------
    --------------
    --------------
    --)--)--)--)--
    -5)-8)-7)-6)--
    -3--6--5--4---
    
    
    When it gets heavy, play this...…
  • Standard Tuning
    
     E
     A
     D
     G
     B
     e
    
    The chords are
            | B | C#| D | E |
            |---|---|---|---|
            |-4-|-6-|-7-|-9-|
            |-4-|-6-|-7-|-9-|
            |-4-|-6-|-7-|-9-|
            |-2-|-4-|-5-|-7-|
            |---|---|---|---|…
  • Tuning: Standard (E A D G B e)
    
    Intro:
    
    ---------------------------------|
    ---------------------------------|
    ---------------------------------|
    ---------------------------------|
    -5-7-7-7-------------------------|
    ---------6-0-0-0-3-0-0-5-0-0-3-5-|
    
    Verse:…
  • Standard Tuning
    
    E
    A
    D
    G
    B
    e
    
    
    The Main Riff
    
      ----------------------------|
      ----------------------------|
      ----------------------------|
      -3-2-2-2-2-2-2--------------|
      -3-2-2-2-2-2-2--------------|
      -1-0-0-0-0-0-0--------------|
    
    
    The…
  • Tuning...
    
    
    Eb
    Ab
    Db
    Gb
    Bb
    eb
    
    
    Intro and verses....
    
    --------------------|
    --------------------|
    --------------------|
    -2-2-2-2-2-2-2-2-0--|
    -2-2-2-2-2-2-2-2-3--|
    -0-0-0-0-0-0-0-0-3--|
    
    Chorus   (with wah)
    
    -------------------------------------------------------------------|
    -------------------------------------------------------------------|
    -------------------------------------------------------------------|
    -------------------------------------------------------------------|
    -0-2-3-5-3-3-3-3-3-5-5-5-5-0-2-3-5-7-7-7-7-7-7-9-9-9-9-9--0-2-3-5--|
    -------------------------------------------------------------------|
    
    
    --------------------------------------------------|
    --------------------------------------------------|
    --------------------------------------------------|
    --------------------------------------------------|
    -5-5-5-5-5-7-7-7-7-7-0-2-3-5-3-3-3-3---5-5-5-5-5--|
    --------------------------------------------------|
    
    Only…
  • Tuning...
    
    E
    A
    D
    G
    B
    e
    
    Intro...
    
    ------------------------------|
    ------------------------------|
    --4-5-4-7---------------------|
    --5-6-5-7-2-2-x-x-2-2-x-2-2---|
    --5-6-5-5-2-2-x-x-2-2-x-2-2---|
    --3-4-3---0-0-x-x-0-0-x-0-0---|
    
    
    A…
  • Standard tuning...
    
    E
    A
    D
    G
    B
    e
    
    
    The intro...
    its keyboard or weird guitar...
    
    ---------------|
    ----11--12-----|
    -9-------------|
    -----------12--|
    ---------------|
    ---------------|
    
    The chorus...
    
    --------------------|
    --------------------|
    -7--7--9------------|
    -7--7--9------------|
    -5--5--7------------|
    -------0------------|
    
    
    After…
  • Tuning
    D
    A
    D
    G
    D
    e
    
    Intro with the screaming  play twice
    /-------------------------------------------------------------------------------
    /-------------------------------------------------------------------------------
    /-------------------------------------------------------------------------------
    /--1-1-1-1-1-1---1-1-1-1-3-2-1--------------------------------------------------
    /--1-1-1-1-1-1---1-1-1-1-3-2-1--------------------------------------------------
    /--1-1-1-1-1-1---1-1-1-1-3-2-1--------------------------------------------------
    
    Play…
  • Standard tuning
    
    E
    A
    D
    G
    B
    e
    
    
    The chorus riff...
    Don't follow it note by note, that isn't the exact amount
    of times to play them, but follow that and you will get it.
    
                               slow bend
    -----------------------------)---|
    ------------------)---------7----|
    ---4---4-4-6-6-6-6--6-6-4-6------|
    ---------------------------------|
    ---------------------------------|
    ---------------------------------|
    
    
    The…
  • Tuning: Standard
    EBGDAE high to low
    
    Intro: Guitar 1
    
    -------------------------------------------------------------------
    -------------------------------------------------------------------
    -----0---3-2-----0-------0---3-2----6---------0---3-2-----0--------
    -0-3---0-------3-----0-3---0------3---3-2-0-3---0-------3---3-2---0
    ----------------------------------------------------------------3--
    -------------------------------------------------------------------
    
    Intro:…
  • Tuning: Drop D
    EBGDAD High to Low
    ^ = Bend
    Intro with bass
    
    Intro and verse: Guitar 1
                3x                   
    -----------------------------|---------------------------|
    -----------------------------|---------------------------|
    -----------------------------|---------------------------|
    --xx-xx-3--0-7--3--0-8-8-8-7-|--2-2-2-2-8--8-8-8-8-8-8-8-|
    --xx-xx-3--0-7--3--0-8-8-8-7-|--2-2-2-2-8--8-8-8-8-8-8-8-|
    --xx-xx-3--0-5--3--0-8-8-8-7-|--2-2-2-2-8--8-8-8-8-8-8-8-|
    
    Intro:…
  • Tuning: Standard
    
    Intro/verse:
    -------------------------------|
    -------------------------------|
    -0-10-0---5-0-3-0--0-5-0-3-5-0-|
    -------------------------------|
    
    Chorus:                                  2x
    ---------------------------|--------------------------------|
    ---------------------------|--------------------------------|
    -----3-------------5-------|-0-10-0---5-0-3-0---0-5-0-3-5-0-|
    -1-1---1-1-1--/3-3---3-3-3-|--------------------------------|
    
    Interlude:
    ---------------------------------------|
    --------5-----7-------------------5---|
    -0----7---0---------------------7---5-|
    -------------------1---1-1-3-0--------|
    
    Break:
    ------------------------------------------|
    ---------------------------5--------------|
    --------5------5-7-----5-7---5--3-5-3-2---|
    -5--7-8---7--8------8-------------------3-|
    
    second…
  • Symbols: 
    
    5b(7) = Bend 5th fret to the pitch of the 7th fret 
    X = Muted Strings 
    
    Use Drop D Tuning, the standard Stabbing Westward tuning (DADGBe)
    
    
    Intro Rhythm Guitar (w/distortion)…
  • Tuning: Drop D (D A D G B e)
    
    Verse:
    --------------------------|
    -11------11----8------8---|
    -10---10----10-7--------7-|
    -9-------------5----------|
    -9-------------5----------|
    -9-------------5----------|
    chorus:
    -----------------------------------|
    1111111111111111-8-8-8-8-8-8-8-8-8-|
    1010101010101010-7-7-7-7-7-7-7-7-7-|
    -9-9-9-9-9-9-9-9-5-5-5-5-5-5-5-5-5-|
    -9-9-9-9-9-9-9-9-5-5-5-5-5-5-5-5-5-|
    -9-9-9-9-9-9-9-9-5-5-5-5-5-5-5-5-5-|
    Break:
    ------------------------------------------------------------------|
    -13-12----13-12----13-12----13-12-15-14----15-14----15-14----15-14|
    -------11-------11-------11-------------12-------12-------12------|
    ------------------------------------------------------------------|
    ------------------------------------------------------------------|
    ------------------------------------------------------------------|
    
    ---------------------------------------|
    -17-15----17-15----17-15----17-15------|
    -------14-------14-------14-------9/11-|
    ---------------------------------------|
    ---------------------------------------|
    ---------------------------------------|…
  • A very simple song, not much guitar.  They use harmonics
    and the rest revolves around an E.
    
    Tuning
    
    E
    A
    D
    G
    B
    e
    
    Intro...
    
    --------------------|
    --------------------|
    --------------------|
    -2------------------|
    -2------------------|
    -0-(3.2)-(3.2)------|
    
    I…
  • Tuning: Drop D (D A D G B e)
    
    The whole song is basically one riff
    ----------------------------------------------------|
    ----------------------------------------------------|
    ----------------------------------------------------|
    -----4---------4---------------4--------4-----------|
    ---4---------4---------5-----4--------4---------5---|
    -4------4--7-----4-0-------4-----4--7-----4-0-------|
    Sometimes…
Наверх