Аккорды Status Quo - Electric Arena

Добавлено: @romashka
Дата добавления: 25 Февраля 2019г.
Рейтинг:
0.0
Просмотров: 46
Транспонировать - +
Intro:
            Em                Am              B7                   Em
e|--------------------------------------------------------------------------|
B|-------12----------------12-----11/12----------------11/12----------------|
G|----12----14-12-------12----14~-------14-12-14-12-14-------14-12-12-12----|
D|-/14-------------14-14-------------------------------------------------14-|
A|--------------------------------------------------------------------------|
E|--------------------------------------------------------------------------|

 B7           Em                Am          B7                   Em       B7
e|-------------------------------------------------------------------------|
B|---------------------------12----------------------11/12-----------------|
G|-14b-16r-12-12-12-------12----14~-14br-12-14-12-14-------14-12-12-12-----|
D|------------------14-14----------------------------------------------14-|
A|-------------------------------------------------------------------------|
E|-------------------------------------------------------------------------|

       Em
I have been there
         C
I've been seen there
    G           B7
And I keep goin on
        Em
Telling anyone
            C
Who'll keep hanging on
     Am              B7
That I don't mind at all

          Em
Electric Arena
          Am
Wired for sound
           B7
End of the alleyway
            Em    B7
Back end of any town
          Em
Electric Arena
            Am
I loved you so
              B7
Taught me the kind of things
               Em
My mama should never know

Intro thing:
             Em                Am              B7
e|---------------------------------------------------------------------------|
B|--------12----------------12-----11/12-------------------------12----------|
G|-----12----14-12-------12----14~-------14-12-14-12-14-------12----14-12-12-|
D|-/14-------------14-14-----------------------------------14----------------|
A|------------------------------------------------------14-------------------|
E|---------------------------------------------------------------------------|
   Em       B7
e|----------|
B|----------|
G|-12-12----|
D|-------14-|
A|----------|
E|----------|

       Em
Ooh my memory
       C
Always takes me
G                B7
Back to way back when
            Em
Things were happening
       C
Always happening
Am             B7
All because of you

N.С        Em
Electric Arena
          Am
Wired for sound
           B7
End of the alleyways
            Em     B7
Back end of any town
          Em
Electric Arena
            Am
I loved you so
              B7
Taught me the kind of things
               Em
My mama should never know

Am               Em
When I'm feeling blue
  Am                 Em
I sometimes think of you
Am               B7
Then I'm feeling so much better

Solo:
                      Em                    Am             B7
e|-15br-15-14-12----12-12--15br-15-14-12----12~---------------------|
B|---------------15----------------------15-----15br-14-13-13-12-12-|
G|------------------------------------------------------------------|
D|------------------------------------------------------------------|
A|------------------------------------------------------------------|
E|------------------------------------------------------------------|
                      Em  B7
e|-15br-15-14-12----12-12-|
B|---------------15-------|
G|------------------------|
D|------------------------|
A|------------------------|
E|------------------------|

    Em
I'm wondering
       C
Was it better then
   G             B7
Or is it all the same
       Em
Was it happening
          C
And still happening
Am             B7
All because of you

N.        Em
Electric Arena
          Am
Wired for sound
           B7
End of the alleyways
            Em    B7
Back end of any town
          Em
Electric Arena
            Am
I loved you so
              B7
Taught me the kind of things
               Em
My mama should never know

Бой - V x ^ V x ^
comments powered by Disqus
Наверх