Аккорды Sticky Fingers - Rum Rage

Добавлено: @romashka
Дата добавления: 22 Декабря 2021г.
Рейтинг:
0.0
Просмотров: 29
Транспонировать - +
[Intro]

 
Intro Guitar 1:
-------------
e|----------------------------------------------|
B|----5/6---5/6 -------------------------------| 
G|------------------5--5---5/7---5/7 ----2--2--| 
D|----------------------------------------------| 
A|----3/5--(3/5 )------------------------------|
E|------------------5--5---5/6--(5/6 )---1--1--| 
 
Intro Guitar 2:                                                                  
-------------
e|--------------------------------------------------|
B|------10--10--10-8------10--10--10-10b11br10-8----|
G|----10--10--10----10--10--10--10------------------|
D|--------------------------------------------------|
A|--------------------------------------------------|
E|--------------------------------------------------|

e|--------------------------------------------------|
B|------10--10--10-8------10--10--13-13b15br13------|
G|----10--10--10----10--10--10--10-------------10---|
D|--------------------------------------------------|
A|--------------------------------------------------|
E|--------------------------------------------------|
 
 
[Verse 1]                                                         
 
           Dm                  Am
It takes a beaten up animal to put em all away
A#                     F
Rushing me around and sending me astray
           Dm               Am
Don't you lie to me, yes we finally
      A#                     F
Got a handle on the doors we open and shut
 
 

 
Dm                                Am                                            
Packing up my suitcase, cause I'm going far away
    A#                         F
I'm going to a place where the credit cards
      Dm                    Am
Don't decline on me, yes we finally
      A#                     F
Got a handle on the doors we open and shut
                        
 
 
Chorus Guitar
e|---------------------------------------------------|
B|--------3---3-------5---5-------5---5-6--5-8------|
G|--3/-5----5---5/-7----7---5/-7----7----------------|
D|---------------------------------------------------|
A|-----------------------------------------------X4--|
E|---------------------------------------------------|
 
 
  Gm   C     Am
She took her time
 Dm      Gm
Took my mind
    C       Am   Dm
But forget mine
 
 Gm     C        Am                                                             
Me in my frame of mind
   Dm       Gm
We took our time
 C          Am   Dm
But she took mine
 
 
[Intro + solo 1]                                                    
 
e|--------------------------------------------------------------------------------------------|
B|--8---/---10----10-108--5/6------6--8/10----13-13 --5/6----6-6 --3 ----5-5/6 --6------|
G|--------------------------------------------------------------------------------------------|
D|--------------------------------------------------------------------------------------------|
A|--------------------------------------------------------------------------------------------|
E|--------------------------------------------------------------------------------------------|
 
e|---------------------------------|                                           
B|--8---/---10-------13------6----|
G|---------------------------------|
D|---------------------------------|
A|---------------------------------|
E|---------------------------------|
 
 
[Verse 2]                                                                        
 
       Dm                       Am
We're remotely secluded in this far away place
A#                            F
Heading to a land where everything is okay
            Dm            Am
Don't think suddenly that you and me
      A#                     F
Got a handle on the doors we open and close
 
        Dm                     Am
Can you take a little time ego balance your ways                                
      A#                      F
Cause everything we do and we put on display
      Dm               Am
Maybe you and me are a little the same
   A#                     F
So what do you think of-a what we've made?
 
 
[Chorus 2]                                                                     
 
e|---------------------------------------------------|
B|--------3---3-------5---5-------5---5-6--5-8------|
G|--3/-5----5---5/-7----7---5/-7----7----------------|
D|---------------------------------------------------|
A|-----------------------------------------------X4--|
E|---------------------------------------------------|
 
  Gm   C     Am
She took her time
 Dm      Gm
Took my mind
    C       Am   Dm
But forget mine
 
 Gm     C        Am                                                            
Me in my frame of mind
     Dm       Gm
We took our time
      C       Am         Dm
But she took mine
 
 
[Intro + solo 2]                                                 
 
e|--------------------------------------------------------------------------------------------|
B|--8--/--10----10-108--5/6---------8/10----13-13 --5/6----6-6/5--3-/-1----3-3 --5/6------|
G|--------------------------------------------------------------------------------------------|
D|--------------------------------------------------------------------------------------------|
A|--------------------------------------------------------------------------------------------|
E|--------------------------------------------------------------------------------------------|
 
                                                                             
e|-------------------------------12/13----13--15 --15-/-17----17--17
--12-/-13------------|
B|--6--8/108-/-10----13-13 ----------------------------------------------------------------|
G|--------------------------------------------------------------------------------------------|
D|--------------------------------------------------------------------------------------------|
A|--------------------------------------------------------------------------------------------|
E|--------------------------------------------------------------------------------------------|
 
                                                                                
e|---------------------------------------------------15------13-------------|
B|--8 ----13----10----5-/-6----8 ----13----10----------------------------|
G|---------------------------------------------------------------------------|
D|---------------------------------------------------------------------------|
A|---------------------------------------------------------------------------|
E|---------------------------------------------------------------------------|
Наверх