Аккорды «Sting»

Sting
Стинг (англ. Sting) — творческий псевдоним Гордона Мэтью Самнера (англ. Gordon Matthew Sumner), британского музыканта, актёра, общественного деятеля и филантропа. Стинг родился 2 октября 1951 года в Уолсенде, Англия. До начала сольной карьеры Стинг был вокалистом, бас-гитаристом и основным автором песен рок-группы The Police. На протяжении своей музыкальной карьеры Стинг получил 16 наград Grammy, первую из которых ему вручили за «лучшее инструментальное рок-выступление» в 1981 году. Кроме того,… Читать полностью... Стинг (англ. Sting) — творческий псевдоним Гордона Мэтью Самнера (англ. Gordon Matthew Sumner), британского музыканта, актёра, общественного деятеля и филантропа. Стинг родился 2 октября 1951 года в Уолсенде, Англия. До начала сольной карьеры Стинг был вокалистом, бас-гитаристом и основным автором песен рок-группы The Police. На протяжении своей музыкальной карьеры Стинг получил 16 наград Grammy, первую из которых ему вручили за «лучшее инструментальное рок-выступление» в 1981 году. Кроме того, он был номинирован на премию Oscar за лучшую песню к фильму; его имя внесено в Зал славы рок-н-ролла и Зал славы авторов песен. Стинг — командор Ордена Британской империи. В начале 1980-х на душевное самочувствие Стинга, равно как и на стабильность возглавляемой им группы The Police, оказал его развод с первой супругой Фрэнсис, хотя отношения бывших партнеров остались "приятельскими". С Фрэнсис остались дети: сын Джо (11 лет) и дочь Кэтрин (5). И "приятельство" не помешало первой жене Стинга в конце 1987 года обратиться в суд с иском на недостаточную финансовую обеспеченность. У Стинга к тому времени была новая семья: жена Труди, дочь и сын. Тогда же, в 1983-4 годах начала закладываться основа первого сольного диска "The Dream of the Blue Turtle" и концертных программ. Нужно отметить, что философичность и углубленный психологизм песен этого альбома явились естественным продолжением настроя последнего диска трио. Весь лонгплей отличало полнокровное соединение белой сочинительской и исполнительской рафинированности с негритянской экспрессивностью остальных членов группы сопровождения. Возникла необходимая для творчества цельная атмосфера репетиций и записи, отмеченная коллективным согласием, шутками, усталостью, полетом и блеском всех участников, соединения, перешагивающего обычные рамки взаимодействия "звезды" с группой сопровождения. Участие, например, саксофониста Брэнфорда Марсалиса или ударника Омара Хакима далеко вышло за границы участия приглашенного ремесленника-профессионала. Все эти факторы делают "The Dream of the Blue Turtle" совершенно отличным от созданных примерно в то же время альбомов других протагонистов жанра, например "Let's Dance" Дэвида Боуи (с участием, кстати, того же Омара Хакима). Хотя не было очевидной хитовой направленности, очень успешной в чартах оказалась "If You Love Somebody (Set Them Free"), текст которой достаточно однозначно намекал на недавние семейные неприятности Стинга. И другие песни удерживали необходимый баланс между танцевальностью (подчеркнутой легким ритмом регги) и камерностью, ярко высветившейся в драматичности текста, как например, в очень напоминающей Тома Уэйтса "Moon over Burbon street". Отдельных слов заслуживает песня "Russians" с участием ленинградского симфонического оркестра, с цитатами из Прокофьева и текстом, актуально откликающимся на нынешние политические реалии. Из песни могла бы получиться обыкновенная агитка, но Стинг этой опасности миновал. В целом альбом оказался сборником сильных песен без слабых мест. Таким же по качеству оказалось и последовавшее позже крупное гастрольное турне и фильм режиссера Мартина Скорсезе, в который продюсер вложил два миллиона долларов. Фильм этот не добился сногсшибательного коммерческого успеха, но, тем не менее, убедительно доказал, что настоящая "звезда" сможет достойно проявить себя и в поп-музыке. А что касается соединения рока и джаза, то оно было настолько естественным, что смогло увлечь даже подростковую аудиторию. Еще одним доказательством качества соединения песенной камерности и роковой формы стало выступление Стинга с Марсалисом и Филом Коллинзом на концертной акции "Живая помощь" в 1985 году. К тем же временам относятся и многочисленные роли, сыгранные Стингом в фильмах режиссеров Майкла Эптеда (очень интересный видеофильм "Bring on the Night"), Maртина Скорсезе (роль Понтия Пилата в фильме "Последнее искушение Христа"), Дэвида Линча. И хотя сам Стинг утверждал, что "решительно не хочет быть актером", его кинематографический опыт дал значительный импульс в концертной деятельности, а также в подготовке видеоклипов. "Моей маме и всем, кто ее любил", - так звучит посвящение с альбома "Nothing Like the Sun". Мать Стинга скончалась в июле 1987 года, как раз во время завершения работы над диском, но этот трагический случай придал певцу новые усилия для создания наиболее убедительного результата. А когда в декабре того же года от той же болезни скончался отец, худшего начала для огромного кругосветного турне трудно было представить. Но, несмотря на все эти события, перед слушателями предстал замечательный музыкант в сопровождении не менее выдающейся группы. В противоположность спонтанности диска "The Dream of the Blue Turtle" на следующем альбоме подход более рациональный, с использованием возможностей современной компьютерной техники. Интимный трепет перкуссии Мино Чинелу, равно как и синтезаторная раскрашенность фанково-танцевального хита "We'll Bе Together" или гитарные парады Эрика Клэптона и Марка Нопфлера производят сильнейшее впечатление, без искажения или потери динамики, которыми грешат многие диски, записанные с участием "звезд". Навеянное Шекспиром название альбома вводит слушатели в мир волшебного сомнамбулизма в песне "Sister Moon", здесь же рассказ о фиктивном браке ("The Secret Marriage"), повесть о трагичной судьбе Средней Америки и людей, в ней живущих ("Fragile"). В звуке, аранжировке и продюсерской работе очевидна завершенность, временами переходящая в утрату спонтанности. Во всяком случае, альбом добился первой премии Британской грамзаписи как лучший диск 1987 года. Этот успех (равно как, разумеется, и финансовый), помог Стингу вместе с Коуплендом основать фирму Рangea. В 1988 году он начал участвовать в деятельности организации "Международная Амнистия", заботился о судьбе бразильских лесов и проживающих там индейцев. На его автобиографическом студийном диске есть американский хит "All this Time". Альбом "Soul Cages" (1991) отличался меланхоличностью, настроением сгущенной печали, причиной которых стали еще не зажившие после смерти родителей сердечные раны. А исключительный по качеству лонгплей "Ten Simmoner's Tales" (1993) вновь был отмечен характерным для музыканта юмором и светом (он включал хитовые синглы "If I Ever Lose My Faith In You" и "Fields of Gold"). В том же году песня "All for Love", записанная тройственным союзом Стинг - Род Стюарт - Брайан Адамс - вознеслась на вершину хит-парадов. Удивительное мастерство, интеллигентность и душевность Стинга - композитора, автора текстов, певца - подтвердили его последующие альбомы "Mercury Falling" (1996) и "Brand New Day" (1999), причем за последний - в высшей степени жизнеутверждающий, одухотворенный, пронизанный идеей концепутальности диск - артист получил две премии "Грэмми". И хотя имя Стинга не мелькает в скандальных хрониках и, скорее, стало даже нарицательным обозначением "примерного семьянина" (кстати, именно счастливая семейная жизнь, по признанию самого артиста, подтолкнула его на создание "Brand New Day"), он остается одним из самых востребованных исполнителей сегодняшнего дня, а его музыка - "богатой пищей для ума и сердца, настоящим праздником для рок-гурманов". Скрыть...
Популярные аккорды Sting:
алфавиту | просмотрам | случайно
  • F#m    E     D    C#m
    F#m    E     D    C#m
    D            A    C#m
    D      C#m   F#m
    
    1.    He deals the cards as a meditation
          And those he plays never suspect
          He  doesn?t play for the money he wins
          He doesn?t…
  • %
    (3)--------3---2-|-----------2---2-|-----------2---0-|-----------0---0-|
    ---1---1---------|---1---1---------|---0---0---------|---0---0---------|
    ---2---2---------|---2---2---------|---0---0---------|---0---0---------|
    -----------------|-----------------|-----------------|-----------------|
    -0-------0-------|-2-------2-------|-----------------|-----------------|
    -----------------|-----------------|-0-------0-------|-0-------0-------|…
  • e|------------------------------------|
    B|--------------0---------------------|
    G|--------2-----------2---------------|
    D|-----0-----0-----0-----0------------|  x2
    A|------------------------------------|
    E|--3---------------------------------|
    
    e|------------------------------------|
    B|------------------------------------|
    G|--------------0---------------------|
    D|--------4-----------4---------------|…
  • Bm  Bm7
    
    Em             A            Bm           Bm7
    I don't drink coffee I take tea my dear
    Em         A                Bm    Bm7
    I like my toast done on the side
    Em           A            Bm            Bm7
    And you can…
  • Am                      Am/C
    A stone's throw from Jerusalem
    Fmaj7                              Eaug
    I walked a lonely mile in the moonlight
    Am                     Am/C
    And though a million stars were shining
    Fmaj7…
  • Вступление:Emmaj9  Em6add9
    
                       Emmaj9                     Em6add9
    If the night turned cold and the stars looked down
                     Em7add9          Em6add9
    And you hugh yourself on the cold cold…
  • Cm
    I dream of rain
    Cm/Bb
    I dream of gardens in the desert sand
    Ab
    I wake in pain
    Fm                  G7                   Cm
    I dream of love as time runs through my hand
    
    I dream of fire
    Those dreams are tied to a horse…
  • Hm7                 G
    You'll remember me when the west wind moves
                         D
    Upon the fields of barley
               Hm7                 G        D
    You'll forget the sun in his jealous sky
          G/H       A…
  • Let me [F#m]watch by the fire and remember my days
    
    And it [E]may be a trick of the firelight 
    
    But the [B?/D#]flickering pages that trouble my sight
    
    Is a [D]book I'm afraid to write
    
    
    It's the[F#m] book of my days, it's…
  • Sounds best with nylon string guitar (or capo on 2nd fret of steel string)
    
    Em              Em7                 Am7 
      If blood will flow when flesh and steel are one 
    Bm7                         Em 
    Drying in the colour…
  • INTRODUCTION:
           q e e q e e 4  
    +---+---------------+
    |4:-|*---R---R-----*|
    |4:-|*-------------*|
    +---+--5---5---0-3--+
    
    
    VERSE:
        e  e  e  e  e  e  e  e    e  e  e  e  e  e  e  e    e  e  e  e  e  e  e  e  
    +--------------------------+-------------------------+-------------------------+
    |*-------------------------|-------------------------|-------------------------|
    |*-12-12-12-12-12-12-12-12-|-10-10-10-10-10-10-10-10-|-------------------------|
    +--------------------------+-------------------------+-10-10-10-10-10-10-10-10-+…
  • -----------------|--------------------|----------|--------------|
    -----------------|-------------4------|----------|--------------|
    --5-3-5-3-5-3-5-3|-5-3-5-3-5-6---6-5-3|-3--------|-------------3|
    -----------------|--------------------|------6---|5------3-5-6--|
    -----------------|--------------------|----------|--------------|
    -----------------|--------------------|----------|--------------|
    
    
    -----------------|--------------------|----------|-----------------------|
    -----------------|-------------4------|----------|-----------------------|
    --5-3-5-3-5-3-5-3|-5-3-5-3-5-6---6-5-3|-3-1-0-1--|-----------------------|
    -----------------|--------------------|----------|-----------------------|
    -----------------|--------------------|----------|-----------------------|
    -----------------|--------------------|----------|-----------------------|…
  • Am     Am7/G FM7
    In Europe and America
              Dm                 E/G#   E
    there's a growing feeling of histeria.
       Am              Am/G    FM7
    Conditioned to respond to all the threats
               Dm…
  • Verse Part                                                                      
    ----------|-----5--|--------|--------|--------|-----5--|--------|--------|------
    ----5-----|--------|--3-----|-----3--|--5-----|--------|--3--2--|--1-----|------
    ----------|--3-----|-----3--|--------|-----4--|--3-----|--------|-----5--|------
    -------3--|--------|--------|--1-----|--------|--------|--------|--------|------…
  • Intro: In Bm position pluck the three top strings.
    
    
     Verse 1:
    
        Bm         Bm        E             E
     Young men and soldiers, nineteen fourteen.
    
        Bm               Bm       E            E
     Marching through countries…
  • e---7-8-7---7-8-7---7-8-7---5-7-8---7-535---5-7-5---5-7-5---5-7-5--|
    B------------------------------------------------------------------|
    G------------------------------------------------------------------|
    D------------------------------------------------------------------|
    A------------------------------------------------------------------|
    E------------------------------------------------------------------|
    
    e-----0-2-3---2-0-2--------7-8-7---7-8-7---7-8-7---5-7-8---7-535---|
    B---0--------------------------------------------------------------|
    G------------------------------------------------------------------|
    D------------------------------------------------------------------|
    A------------------------------------------------------------------|
    E------------------------------------------------------------------|
    
    e---5-7-5---5-7-5---5-7-5-----0-2-3---2-0-2----232-0---------------|
    B---------------------------0--------------------------------------|
    G------------------------------------------------------------------|
    D------------------------------------------------------------------|
    A------------------------------------------------------------------|
    E------------------------------------------------------------------|
    
    e---2---0-2-3---2-3-5---3-2-0-----0-2---232-0-------2---0-2-3------|
    B-------------------------------4----------------------------------|
    G------------------------------------------------------------------|
    D------------------------------------------------------------------|
    A------------------------------------------------------------------|
    E------------------------------------------------------------------|
    
    e---2-3-5---3-2-0------------------7-8-7---7-8-7---7-8-7---5-7-8---|
    B--------------------54--------------------------------------------|
    G----------------------5-4-----------------------------------------|
    D------------------------------------------------------------------|
    A------------------------------------------------------------------|
    E------------------------------------------------------------------|
    
    e---7-535---5-7-5---5-7-5---5-7-5-----0-2-3---2-0-2-320-2----------|
    B-----------------------------------0------------------------------|
    G------------------------------------------------------------------|
    D------------------------------------------------------------------|
    A------------------------------------------------------------------|
    E------------------------------------------------------------------|
    
    e---2---0-2-3---2-3-5---3-2-0-----0-2------------------------------|
    B-------------------------------4----------------0-0---1-0---1-0---|
    G------------------------------------------------------------------|
    D------------------------------------------------------------------|
    A------------------------------------------------------------------|
    E------------------------------------------------------------------|
    
    e---------------------------------------------------------3-2-0----|
    B------------0-------------5-5-5-53-5-------------3-1-0---2-1------|
    G----------------0----------------------------0-2------------------|
    D------------------2----2-----------------2-4----------------------|
    A------------------------------------------------------------------|
    E------------------------------------------------------------------|
    
    e---7-8-7---7-8-7---7-8-7---5-7-8---7-535---5-7-5---5-7-5---5-7-5--|
    B------------------------------------------------------------------|
    G------------------------------------------------------------------|
    D------------------------------------------------------------------|
    A------------------------------------------------------------------|
    E------------------------------------------------------------------|
    
    e-----0-2-3---2-0-2---232-0----------------------------------------|
    B---0----------------------------54---------54---------54----------|
    G----------------------------------5-4--------5-4--------5-4-------|
    D------------------------------------------------------------------|
    A------------------------------------------------------------------|
    E------------------------------------------------------------------|
    
    e------------------------------------------------------------------|
    B------------------------------------------------------------------|
    G------------------------------------------------------------------|
    D------------------------------------------------------------------|
    A------------------------------------------------------------------|
    E------------------------------------------------------------------|…
  • Bass tab
       STANDARD TUNING
       
    (DRUMS)
    |-------|----------------|--------------|-------------|-------------|
    |3----5-|*4--5---5-------|-----------5-*|-5---5-------|-------------|
    |4------|*4--------7---7-|-5---5-------*|-------7---7-|-5---5-------|
    |-------|----------------|-------8------|-------------|-------8---8-|…
  • Intro:
    
     Riff #1
    
     e-10-10-10-8-8-5-5-8-8-|     play this a total of 4 times.
     B----------------------|
     G----------------------|
     D----------------------|
     A----------------------|
     E----------------------|
    
    
     Part A: play…
  • VERSE:
           q q q q   q q q q   q q q q   q q q q    
    +---+----------+---------+---------+----------+
    |4:-|*---------|---------|---------|---------*|
    |4:-|*---------|---------|-5-3-0-3-|---2-----*|
    +---+--5-3-0-3-+-5-3-0-3-+---------+-3---3-3--+
    
    CHORUS:…
  • In Am (Blues Am scale).
    
    E-----0----------0---------------------0-------------------------------------|
    B---0---1------0---1/3-3-3-31/31---0---1--------------0--8-8-6-5-3-5-5-----|
    G-2----------2---------------------2--------2-2-0-2---2----------------------|
    D----------------------------------------------------------------------------|
    A----------------------------------------------------------------------------|
    E----------------------------------------------------------------------------|
    
    E-----0-----------------…
  • INTERLUDE:
          e e e e e e e e   e e e e e e e e   e e e e e e e e   e e e e e e e e  
    +---+-----------------+-----------------+-----------------+-----------------+
    |4:-|-R-----7-5-R-7-7-|-R-----7-5---R---|-R-----7-5-R-7-7-|-R-----7-5-5-----|
    |4:-|---5-8-----------|---5-8-----7---5-|---5-8-----------|---8-7-------7-5-|
    +---+-----------------+-----------------+-----------------+-----------------+
    
    
    VERSE…
  • Intro: Bm7 F#7 Bm7 F#7
     
    Verse: 
         Bm       F#m/A                   Gmaj7   F#m
    Rox-anne You don't have to put on the red light 
     Em                Asus4                 Bsus4
    Those days are ov-er, you don't have…
  • VERSE:
           q q q q   q q e e q   
    +---+----------+------------+
    |4:-|*---------|-----------*|
    |4:-|*-0-2-3-5-|-0-2-3-2-0-*|
    +---+----------+------------+
    
    CHORUS:
       Q e Q e 2  
    +-----------+
    |*-----R---*|
    |*---------*|
    +--5-5---5--+
    
    BRIDGE…
  • Dropped D Tuning
    
    
             e  q  e  e  q  e   3x  q  q  e  q  q               
    G---||----------------------||------------------------------------------
    D---||*--------------------*||------------------------------------------
    A---||*--------------------*||-----------0--0---------------------------
    D---||---5--5--5--5--5--5---||--5--5--5---------------------------------…
  • M.M. = 110
    |-----------------------|-----------------------|
    |------3----------3--2--|------3----------3--2--|
    |----2----2-----2-------|----2----2-----2-------|
    |-0---------------------|-----------------------|
    |-----------------------|------------0----------|
    |------------2----------|-3---------------------|
    
    
    |-----------------------|--------------------------||---|
    |------3----------3--2--|------3----------3--2-----||o--|
    |---------2-------------|---------2----------------||---|
    |----4----------4-------|----4----------2----------||---|
    |-2---------------------|-2----------0-------------||o--|
    |------------2----------|--------------------------||---|
    
    
    |------3----------3--2--|------3----------3--2--|
    |----3----3-----3-------|----3----3-----3-------|
    |-----------------------|-----------------------|
    |-----------------------|------------0----------|
    |------------2----------|-3---------------------|
    |-3---------------------|-----------------------|…
  • INTRODUCTION
    		(repeat 4 times)
        w   w    q e e e e e q e e q 
    +-----+---+-----------------------+
    |7:-R-|-R-|*---R---R---R---------*|
    |4:---|---|*---------9---9---9---*|
    +-----+---+--7---7---------7---9--+
    
    
    VERSE…
  • Verse 1: 
               Em                G
    Now she's walking through the clouds 
            Am                        Em
    With a circus mind that's running wild 
     Bm                    A#m          Am    C      G
    Butterflies…
Наверх