Аккорды Sting - Shape of My Heart

Добавлено: @romashka
Дата добавления: 24 Июля 2017г.
Рейтинг:
0.0
Просмотров: 269
Транспонировать - +
Вступление:
E|-----------------------------------------|-----------------------------------------|
B|-10---10-----9---9-----7---7-----7---6---|-10---10-----9---9-----7---7-----7---6---|
G|----6----------6---------4---------4---4-|----7----------6---------4---------4---4-|
D|-----------------------------------------|-----------------------------------------|
A|-9-----------7---------5---------4-------|-9-----------7---------5---------4-------|
E|-----------------------------------------|-----------------------------------------|

E|---------5---------0--0----------------x--x--2-|
B|-----7-----7-------5--5---------6------7--7--2-|
G|---4---4-----4-----4--2---------6------7--4--2-|
D|-------------------x----------6---6----7--4--4-|
A|-5-----------------x--------4----------5--x--4-|
E|-------------------5-------------------x--4--2-|

Куплет (играется так же, как вступление):
E|-------------------------------------------------------------|
B|-10----10---------------9----9---------7----7--------7---6---|
G|-----6---------------------6--------------4------------4---4-|
D|-------------------------------------------------------------|
A|-9----------------------7--------------5-------------4-------|
E|-------------------------------------------------------------|
           He deals the cards      as a meditation

E|-------------------------------------------------------------|
B|-10----10---------------9----9-------------7----7----7---6---|
G|-----7---------------------6---------------------------4---4-|
D|-------------------------------------------------------------|
A|-9----------------------7------------------5---------4-------|
E|-------------------------------------------------------------|
           And those he plays      never suspect

E|---------5----------------0--0-----------------x--------------x----------2-|
B|-----7-----7--------------5--5---------6-------7--------------7----------2-|
G|---4---4-----4------------4--2---------6-------7--------------4----------2-|
D|--------------------------x----------6---6-----7--------------4----------4-|
A|-5------------------------x--------4-----------5--------------x----------4-|
E|--------------------------5--------------------x--------------4----------2-|
   He doesn´t play for the money he wins           He doesn´t play for respect

He deals the cards to find the answer
The sacred geometry of chance
The hidden law of a probable outcome
The numbers lead a dance

Припев (играется так же, как куплет):

    I know that the spades are the swords of a soldier
    I know that the clubs are weapons of war
    I know that diamonds mean money for this art
    But that´s not the shape of my heart
 
He may play the jack of diamonds
He may lay the queen of spades
He may conceal a king in his hand
While the memory of it fades
 
    I know that the spades are the swords of a soldier
    I know that the clubs are weapons of war
    I know that diamonds mean money for this art
 
E|-----------------------------------------|
B|-7------5--------------------------------|
G|-7----------7----6----4------------------|
D|-7---------------6--------5---4--------2-|
A|-5---------------4------------4--------4-|
E|------------------------------2--------2-|
   That´s not the shape of my heart
    
E|--------------------------------------------------|------------------------------------|
B|-7------5------------4--------7---6---------------|------------------------------------|
G|-7----------7----6---6--------6---6---------------|-9---9----8---8----6---6----6---5---|
D|-7---------------6---6--------6---6---------------|---6--------6--------4--------4---4-|
A|-5---------------4---4--------4---4---------------|------------------------------------|
E|--------------------------------------------------|-9--------7--------5--------4-------|
   That´s not the sha-а-а-аре,          shape of my hea-a-a-a-art...

E|---------------------------------------|-------------------0--0---------------------------------4-----4-|
B|---------------------------------------|---------5---------0--0---------------------------------5-----4-|
G|-9---9-----8---8-----6---6-----6---5---|-----6-----6-------2--1---------5-------6-4-------------6-----6-|
D|---7---------6---------4---------4---4-|---4---4-----4-----2--2---------6-------x---7-6-4-------6-----6-|
A|---------------------------------------|-------------------2--2-------6---6-----x---------7-----4-----4-|
E|-9---------7---------5---------4-------|-5-----------------0--0-----4-----------5-----4---------x-----x-|

E|-----------------5-|
B|-----------------5-|
G|-6-4-------------6-|
D|-x---7-6-4-------7-|
A|-x---------7-----7-|
E|-5-----4---------5-|

And if I told you that I loved you
You'd maybe think there's something wrong
I'm not a man of too many faces
The mask I wear is one
Those who speak know nothing
And find out to their cost
Like those who curse their luck in too many places
And those who fear are lost

    I know that the spades are swords of a soldier
    I know that the clubs are weapons of war
    I know that diamonds mean money for this art
    But that's not the shape of my heart

Концовка:
E|-----------------------------------------|--------------------------------------------2-|
B|-10---10-----9---9-----7---7-----7---6---|-10---10-----9---9-----7---7-----7-6-4-6----2-|
G|----6----------6---------4----------4--4-|----7----------6---------4------------------2-|
D|-----------------------------------------|--------------------------------------------4-|
A|-9-----------7---------5----------4------|-9-----------7---------5---------4----------x-|
E|-----------------------------------------|--------------------------------------------x-|
Наверх