Аккорды Sting - Shape of My Heart

Добавлено: @romashka
Дата добавления: 25 Августа 2020г.
Рейтинг:
0.0
Просмотров: 39
Транспонировать - +
Вступление x2
E|-3----------3---1---------1---0---------0--0---------|
B|------0--------------0---------------------------4---|
G|-------------------------------------2---------------|
D|-2--2----2------0--0---0-----------------------------|
A|--------------------------------3--3----3--2---------|
E|-----------------------------------------------------|

Середина

E|-------0------3------0-----|------------------------|
B|---------0-------0---------|----3---2--2-------4----|
G|-----2------2------2---2---|----2---0--0------------|
D|---------------------------|-----------------4------|
A|---3-----------------------|---------------2--------|
E|---------------------------|--3---------------------|

Заключение
                                Em
E|--0------------------------------0------------|
B|------3---1---0---2---0---------0-------------|
G|-------------------------------0--------------|
D|------------------------------2---------------|
A|--3--------------------------2----------------|
E|--------------2-------------0-----------------|
Наверх