Аккорды «Stone Sour»

Stone Sour
Stone Sour - музыкальная группа из США (Де-Мойн, штат Айова), играющая в стиле «альтернативный метал». Её основатели - Кори Тейлор, ставший знаменитым как вокалист группы Slipknot, Джеймс Рут - гитарист Slipknot, а также бывший барабанщик Soulfly Рой Майорга. Перво-наперво Stone Sour - это алкогольный коктейль, состоящий из виски, апельсинового сока и sour mix (по-русски «Отвертка»). Видимо, во время распития нескольких порций в Дес-Мойнском баре в 1992 году Кори Тейлор и Джоел Экман (впоследствии… Читать полностью... Stone Sour - музыкальная группа из США (Де-Мойн, штат Айова), играющая в стиле «альтернативный метал». Её основатели - Кори Тейлор, ставший знаменитым как вокалист группы Slipknot, Джеймс Рут - гитарист Slipknot, а также бывший барабанщик Soulfly Рой Майорга. Перво-наперво Stone Sour - это алкогольный коктейль, состоящий из виски, апельсинового сока и sour mix (по-русски «Отвертка»). Видимо, во время распития нескольких порций в Дес-Мойнском баре в 1992 году Кори Тейлор и Джоел Экман (впоследствии ушедший из группы) и решили создать группу. Вскоре после образования к ним присоединился старый друг Кори — Шон Экономаки. Без какой-либо материальной поддержки и без лейбла группа вместо того, чтобы писать песни, играла в клубах, меняя гитаристов одного за другим, некоторых даже после одного шоу. Однако всей этой чехарде пришел конец, когда в группу пришел Джеймс Рут в 1995 году. Казалось, все шло хорошо, группа записала несколько демо-записей, если бы не 1997 год. В 1997 году Кори присоединяется к Slipknot, Джоел заводит семью, Джим позже сам присоединяется к Slipknot, а Шон становится менеджером их концертов. Казалось, что всё закончилось и группа мертва. Но тут на горизонте появляется Джош Рэнд. Джош был одним из основателей Stone Sour и старым другом Кори. В 2000 году Рэнд показал Тейлору свои песни. Известно, что он сам работал над ранними версиями Get Inside, Orchids, Idle Hands. После чего Кори и Джош начали работать вместе. После полутора лет работы они были так удовлетворены результатом, что было решено собрать прежний состав группы. А тут как раз 2002 год и конфликт в Slipknot… В общем, все условия, чтобы вернуться к истокам. Группа задалась вопросом о названии… Были разные идеи (Project X, Superego, Closure), но решение пришло быстро. С группой, члены которой вместе играли уже не один год, только одно приходило в голову — Stone Sour вернулись. Здесь начинается их современная история… Студийный дебют коллектива состоялся в начале 2002 года, когда композиция «Bother» прозвучала в саундтреке к фильму «Spiderman». А чуть позже в том же году в свет вышел и дебютный альбом «Stone sour». Диск дебютировал в Биллбордовском Топ 50, и в первую неделю продаж разошелся тиражом в 25 тысяч. Спустя год альбом стал «золотым», а его тираж достиг полумиллиона экземпляров. В декабре 2005 г. группа после затишья (хотя для Кори и Джима это было трудно назвать так) пишет материал для нового альбома. Продюсером выбран Ник Раскулинез. Все идет слишком хорошо… Но идиллия продолжается недолго. Джоэл Экман покидает группу из-за болезни и полследующей смерти своего сына (у него обнаруживают рак мозга)… Но справедливость есть на свете. Кори бросает пить окончательно (ведь к этому времени он уже был женат и имел 2 детей), на место Джоэла становится бразилец Рой Майорга (ex-Soulfly, ex-Sepultura), которому очень понравился первый альбом группы. Группа держит материал альбома в секрете, и в апреле выходит первый клип и песня Hell & Consequences. 23 мая официально появляется новый трек: 30/30-150. Еще позже утекают песни Reborn, Through the Glass (да, тогда в названии еще был артикль) и Come What(ever) May 1 августа альбом Come What(ever) May появляется в продаже и срывает банк. С сентября группа отправляется в огромный тур, затронувший Россию. 17 октября 2006 года состоялась пресс-конференция, эксклюзивные интервью и автограф-сессия группы в магазине Союз в Москве. 18 октября они выступили с концертом в Лужниках в рамках премии RAMP 2006. В мартовском интервью Шон Экономаки подтвердил слухи о выходящем специальном издании альбома Come What(ever) May. То есть у фанов группы есть возможность услышать абсолютно все творение группы, и те 6 песен, которые "попали под нож", станут своеобразным продолжением истории, казалось, закончившейся на песне Zzyzx Rd. DVD содержит выступление на RAMP 2006, клипы 30/30-150, Through Glass, sillyworld и Made Of Scars (в нем Кори уже лысый), почему не вошло видео Reborn - неизвестно… На самом деле, Reborn всё-таки вошло в лицензионный бонус-DVD как скрытое. Релиз состоялся 26 июня 2007 года. После этого Stone Sour взяли долгий отпуск, а в феврале 2010 года начали записывать новый, третий альбом, продюсером которого выступил Ник Раскулинец. Альбом получил название Audio Secrecy и выйдет 7 сентября на лейбле Roadrunner. Уже доступен один трек с нового альбома - Mission Statement.15 июля 2010 года Stone Sour выпускают еще один сингл "Say You'll Haunt Me". 27 июля выходит клип на эту же песню. Режиссером клипа стал Пол Браун. 3 ноября вышел клип Digital. Стало известно, что следующим синглом и клипом станет Hesitate. Недавно группа записала концерт. На этот концерт будет записано DVD. Скрыть...
Популярные аккорды Stone Sour:
алфавиту | просмотрам | случайно
  • Intro:
     e-------------------------------------7-------
     b-7h8----7----7h8p7--------------8--- 7------- 
     g-7-------7-------------9---7------7---- 7----
     d-7h9----7--------------------- 9--------7----
     a-7-------7----------------------7--------7---…
  • Standard Tuning (EADGBE)
    
    Intro Guitar 1
    e--------------------------------------------------
    B--------------------------------------------------
    G--------------------------------------------------
    D--------------------------------------------------
    A--------9---84----5------------------------------
    E--7-----------------------------------------------…
  • Intro:Gm
    
                         Gm
    I'd cross the sea to you
    F                                    C
    I've left myself deserted here again
    Gm                      F
    I'd cross the sea to you
       C…
  • (B F# B E). There are no double-digit numbers in this tab.
    
    Intro/Outro Riff A(incredibly fast):
    E |-------------------------------------------|
    B |-------------------------------------------|
    F#|-------------------------------------------|x3
    B…
  • Припев:
                       H+7                                     
    I'm looking at you through the glass                           
                        C#6                                  
    Don't know how much…
  • Вступление: Hm, A, E.
    Hm              A             E   
    The world was on fire and no one could save me but you...
    It's strange what desire will make foolish people do.
    I never dreamed that I'd meet somebody like you.
    And…
  • Am
    Tell me again why you're running away
    G
    Do you need me?
    Am
    Nobody's home and there's nowhere to stay
    G
    Do you believe me?
    Am
    Maybe I can't be the man of your dreams
    G
    but I can save you.
    Am
    You were never…
  • Tuning: c# 
            g# 
    	e
    	b
    	F#
    	B
    
    
    LEGEND: 
            slide down =  
            slide up   = / 
            hammer     = h 
            PM         = Palm Mute
            TP         = Tremolo Picking  
    
    
         		         		         2X…
  • Tuning:BEADGBE
    
    (intro)
    B|-0-0--3---2-/-3---2-/-3---1--1-/-3----0--0--3---2-/-3---2-/-3---1--1-/-3---|
    E|-2-2--5---4---5---4---5---3--3---5----2--2--5---4---5---4---5---3--3---5---|
    A|-2-2--5---4---5---4---5---3--3---5----2--2--5---4---5---4---5---3--3---5---|
    D|---------------------------------------------------------------------------|
    G|---------------------------------------------------------------------------|
    B|---------------------------------------------------------------------------|
    
    (played…
  • Intro: 
    
       Em                D
    E|-0---0---0---0---0-2-|
    B|-0---0---0---0---0-3-|
    G|-0---0---0---0---0-2-|
    D|-2---2---2---2---2-0-|
    A|-2---2---2---2---2-0-|
    E|-0---0---0---0---0-0-|
    
    Em                 
    I'm alive…
  • Verse 1:
            Bm 
    If you take a step towards me
             G 
    You will take my breath away
             A                                 Bm 
    So I'll keep you close and keep my secret safe
            Bm
    No one else has…
  • Tuning: B F# B E G# C#
    
    PM - Palm mute
    * - Harmonic
    ^ - Bend string
    
    
    Intro
    |--------------------------------------------------------|
    |--------------------------------------------------------|
    |-----------------7---------------------------5----------|…
  • ~~Capo on Fret 1 (Chords are relative to capo)~~
    
    [Dm/A]
     I think Im happy
     Mostly happy
     On a green autumn day
     Im walking lazy
     Barely moving
     Settle out and fade away
    
    
    [C]…
  • intro  00:29 sec
    ----------------------------------------------------|
    ----------------------------------------------------|
    ----------------------------------------------------|
    ----------------------------------------------------|
    -0-0-0-0--0-0-0-0---------0-0-0-0---0-1-0-1-0-1-0-0-|
    -0-0-0-0--O-0-0-0-0-1/0/3-0-0-0-0---0-1-0-1-0-1-0-0-|…
  • Instrument: 5 String Bass
    
    
    Tuning: Standard (B E A D G)
    
    
    Intro
    
    G|----------------|----------------|----------------|----------------||
    D|----------------|----------------|----------------|----------------||
    A|------------2---|4h6-4-4h6-4-4-2-|4h6-4-4h6-4-4-2-|4h6-4-4h6-4-4-2-||…
  • H                                                   
     I don't know how to put this                                 
    G#m
     It's taken me so long to do this                                
    E				    H       F#
     I'm falling asleep…
  • Standart tuning EADGBE
    
    
    Intro: Am9, C, G, Am9 (4x)
    Am9         C G                               Am9
    Simple woman won't you take me home tonight
    Am9         C G                               Am9
    Simple woman won't…
  • E
    I am a dominant gene - live as I die
    E
    Never say forever 'cause forever's a lie
    E
    I can see right through you so I can ignore you
    E
    The story changes but the ending won't bore you.
    
    A…
  • Intro:
    
    Bbm F#
    
    
    D# C#
    B# C# Bb B G#
    
    Verse:
    
    D#
    I am an anti everything man
                  A  G#  F#  G#
    a scab on the lips of the lord
    D#
    my caustic - dismissal
    is all I need to get you
        A  G#  F#  G#
    To…
  • Standard Tuning, Capo on 1st fret
    
    Am                            G
    Every now and then a lifetime needs a second chance-
               Am             D
    To find another one like you
    Am                        
    Don't forget…
  • Tuned down half step down
    
                              __________  __________
       /0:01 Intro (Clean)   |1.     3x \| 2.       \ /0:18 Verse 1                 7x   /0:53 Pre-
    Eb|----------------------|-----------------------------------------------------------------------|
    Bb|----------------------------------|-----------|----------------------------------|------------|
    Gb|*---------0---------0-|------0---*|------0~---|*---------0---------0-------0----*|---------0--|
    Db|*------4----4-----4---|----4---4-*|----4------|*------4----4-----4-------4---4--*|------4-----|
    Ab|-----2--------2-3-----|-5---------|-5---------|-----2--------2-3------5----------|----2-------|
    eb|--0----------------------------------------------0---------------------------------0----------|…
  • Intro Drums Only (0:01-0:07)
    
    Pre-Verse (0:08-0:40) 4x
    Gtr 1(Acoustic)
    C#|-------------------------------|---------------------------|-------------------------------|
    G#|-------------------------------|---------------------------|-------------------------------|
    E…
  • The travelers part 2                       guitar 1- Josh Rand               
        Half step down                               guitar 2- Jim Root( plays 1 
    string higher than guitar 1) notes shown as * 
    guitar 3- Corey…
  • Capo 3 for Chords In brackets
    
    Intro:-  Cm7( Am7)   Gm7(Em)  Cm7( 
    Am7)  Gm7(Em)  Cm7( Am7)  Gm7(Em)
    Cm7( Am7)  Gm7(Em)
    
    Hold your breath and say goodbye you never say a word
    Cm7( Am7)                      Gm7(Em)…
  • Tuning: Drop C#
    
    Intro. 
    
    |-----------------------------------------------------------|
    |-----------------------------------------------------------|
    |-----------------------------------------------------------|
    |-------------------------2-2-0-2-0-2-2-0-2-0-2-2-----------|
    |-------------------------2-2-0-2-0-2-2-0-2-0-2-2-----------|
    |-9-9-9-9-8-8-8-8-7-7-7-7-2-2-0-2-0-2-2-0-2-0-2-2-----------|…
  • Tuning: B,F#,B,E,G#,C
    
    Josh - Lead guitar
    Jim - Rhythm
    
    
    
    Riff A
    Josh (0:08)     (0:27)
    ----------------|------------------17----------|
    -----3----------|--------15--------------------|
    -2h3---3-2------|-/14h15----15-14^----14-14^---|
    ---------0------|------------------------------|
    ----------------|------------------------------|
    ----------------|------------------------------|
    
    Riff…
  • Intro/outro
    ----------------------------------|
    ----44444--2--5--44444--7--9------|     Just repeat the first bit
    ----66666--4--7--66666--9--11-----|
    ----66666--4--7--66666--9--11-----|
    -----PM------------PM-------------|
    ----------------------------------|
    
    Verse
    It's…
  • Intro: Gb Db E B
    
    Verse 1:
    Gb
    Excuse me, oh pardon me
    Db
    I'm still sticky on the inside.
    E                               B
    There comes a time where all I do
       Gb
    Is sit around in contemplation
    A…
  • Tuning - B F# B E G# C#
    
    
    Intro
    |-------------------------------|
    |-------------------------------|
    |-------------------------------| x2
    |-------------------------------|
    |-------------------------------|
    |-12-0-0-13-0-0-0-0-0-0-0-0-0-0-|
    PM…
  • Guitar 1 Rhythmic (C# G# C# F# A# D#)
    Guitar 2 Lead     (C# G# C# F# A# D#)
    Guitar 3 Rhythmic (C# G# C# F# A# D#)
    
    NOTE: This was exported off of guitar pro.
    
    
    Guitar 1
    
          E  H        Q    E     W…
  • Tuning: 6 String Tuned Drop C (C G C F A D)
    
    
    Riff 1 (Intro/Verse)
    D|-----------------------------------------|
    A|-----------------------------------------|
    F|-----------------------------------------|
    C|-----------------------------------------|
    G|--3/5----5/7----5h7p5----3/5-3/5----^----|
    C|------00-----00-------00----------0h3p0--|…
  • Tuning: Drop C
    
    Intro [00:00]
    
    F|------------------------------------------------------------------|
    C|------------------------------------------------------------------|
    G|--------------------------------------------------------10--------|
    C|--12\--000-12-14-12---000-12-14-15---000-12-14-12---000----12-12--|
    
    F|------------------|
    C|------------------|
    G|------------------|
    C|--8(x16)--5(x16)--|
    
    F|-------------------------------------------------------------|
    C|-------------------------------------------------------------|
    G|---------------------------------------------------10--------|
    C|--000-12-14-12---000-12-14-15---000-12-14-12---000----12-12--|
    
    F|------------------|
    C|------------------|
    G|------------------|
    C|--8(x16)--5(x16)--|
    
    
    
    Verse…
  • Guitar 1 (Josh Rand) - Rhythm (B F# B E G# C#)
    Guitar 2 (Jim Root) - Lead (B F# B E G# C#)
    
    BPM of about 114
    
    b - Bend
    PM - Palm Mute
    / - Slide Up
    \ - Slide Down
    
            Solo
    
        Guitar 1
    
      | 1 + 2 + 3 +…
  • Intro
     G|-------------------------------|
     D|-------------------------------|
     A|-------------------------------|  x4
     E|---7-5-------------------------|
     B|-0-----6-0-5-030-332-----------|
    
    Verse
     G|-------------------------------------|…
  • Tuning B F# B E G# C#
    
    Key
    ~  tremolo
      slide
    PM palm mute
    
    Intro
    
    |------------------------------------------------------------------|
    |------------------------------------------------------------------|
    |-7-7-7---7---8----------------7-7-7---7-3-------------------------|
    |-7-7-7---7---8--5-7-4---------7-7-7---7-3--------------5-4~-------|…
  • Guitar 1 Rhythmic (C# G# C# F# A# D#)
    Guitar 2 Lead     (C# G# C# F# A# D#)
    
    Tab Guide...
    ===================================================================
    (end of measures)
    
    ===================================================================
    ===================================================================
    (end…
  • Intro A:        Intro B:
    |--------------|-------------------------------------------------|
    |--------------|-------------------------------------------------|
    |--------------|-------------------------------------------------|
    |-9-9-9-10-9-7-|-------------------------------------------------|
    |-7-7-7--8-7-5-|-------------------------------------------------|
    |--------------|-14-15-14-12-14-15-14-12-14-15-14-12-15-14-14-12-|…
  • Gtr I (Db Ab Db Gb Bb Eb) - 'James Root'
    Gtr II (Db Ab Db Gb Bb Eb) - 'Josh Rand'
    
        Q=153
        D5                           Eb5
       4/4
        Gtrs I, II
        E E E E H      S E S E E +E  S S S S S S
    ||---------------|---------------------------|
    ||o--------------|---------------------------|
    ||---------------|---------------------------|
    ||--0-----0------|-0---0---0-(0)-------------|
    ||o-0-----0------|-0---0---0-(0)-------------|
    ||--0-----0------|-0---0---0-(0)-1-1-1-1-1-1-|…
  • C#||--------------------------------|-------------------------------||
    G#||--------------------------------|-------------------------------||
    E ||--------------------------------|------------------------------*||
    B ||--------------------------------|------------------------------*||
    F#||--3/-0-0-0-0-3/-0-0-0-0-3/0-0-0-|--3/-0-0-0-0-3/-0-0-0-0-3--6---||
    B…
  • Guitar 1 Rhythmic (C# G# C# F# A# D#)
    Guitar 2 Lead     (C# G# C# F# A# D#)
    
    NOTE: This was exported off of guitar pro.
    
    Guitar 1
    
          S S S S S S S S E  E   Q       S S S S S S S S E  E   Q
    D#||------------------------------|------------------------------|
    A#||------------------------------|------------------------------|
    F#||--7-7-7-7-7-7-7-7-7--L\-------|--7-7-7-7-7-7-7-7-7--L\-------|
    C#||--7-7-7-7-7-7-7-7-7--L\--0----|--7-7-7-7-7-7-7-7-7--L\--0----|
    G#||--5-5-5-5-5-5-5-5-5--L\--0----|--5-5-5-5-5-5-5-5-5--L\--0----|
    C#||-------------------------0----|-------------------------0----|…
  • Tunning: B E A D F# b
    
    Intro
      This part with "Wah Wah"
    b |---------------------|
    F#|---------------------|
    D |---------------------|
    A |---------------------|
    E |-10~---10/6~---6/10~-|
    B |---------------------|
    
    b…
  • Bm        F#m     E          E
    If I fail, if I fall, if I can't be free then I never was at all
    F#m       E       B          B
    The more I fight I stay the same
    D         F#m     E          E       
    Where do I go and…
  • Tuning B F# B E G# C#
    
    
    Intro
    |-------------------------------------------------------------------|
    |-------------------------------------------------------------------|
    |---x-x--9-8/9-8/9-9-9-9-9-9--8/11-11-87---------------------------|
    |---x-x--9-8/9-8/9-9-9-9-9-9--8/11-11-87---------------------------|
    |---x-x--7-6/7-6/7-7-7-7-7-7--6/9--9--65---------------------------|
    |---x-x-------------------------------------------------------------|
    
    |-------------------------------------------------------------------|
    |-------------------------------------------------------------------|
    |---9-8/9-8/9-9-9-9-9-9--8/11-11-87--------------------------------|
    |---9-8/9-8/9-9-9-9-9-9--8/11-11-87--------------------------------|…
  • Tuning: D Standard (DGCFAD)
    
    Intro:
    d|---------------------------------------------------------------------------|
    A|---------------------------------------------------------------------------|
    F|------------6~------------7~------------6~---------------------------------|
    C|---------5-------------5-------------5-------10~---9~---5~-----------------|
    G|------7-------------7-------------7-----------8~---7~---3~-----------------|
    D|---0-------------0-------------0-------------------------------------------|
    
    d|---------------------------------------------------------------------------|
    A|---------------------------------------------------------------------------|
    F|------------6~------------7~------------6~---------------------------------|
    C|---------5-------------5-------------5-------------------10~---9~---5~-----|
    G|------7-------------7-------------7-------------3--7------8~---7~---3~-----|
    D|---0-------------0-------------0-------------/5----------------------------|
    
    Verse:…
  • Tuning:
    
    Ukulele: G C E A
    Bass: D G C F
    
    
    Chronological order of the parts:
    3x Part 1
    1x Part 2
    2x Part 1
    1x Part 2
    1x Part 3
    1x Part 1
    1x Part 2
    1x Part 1
    1x Part 4
    3x Part 1
    1x Part 5
    5x Part 1
    4x Part…
  • Regular Tunning (E,A,D,G)
    
    
    Intro
    G)----------------|
    D)----------------|
    A)----------------|
    E)3-4-1-1-3-4-1-1-|
    
    Kinda hard part
    ----------------|
    ----------------|
    ----------------|
    1-3-555-1-3-555-|
    
    Verse
    ------------|
    ------------|
    ------------|
    1-3-5-0-3-1-|
    
    Chorus
    I'm…
Наверх