Аккорды «Stratovarius»

Stratovarius
"Stratovarius" (объединение слов Stratocaster (марка электрогитары фирмы Fender) и Stradivarius (итальянский скрипичных дел мастер)) - финская пауэр метал-группа, была основана в 1984 году тремя парнями из Хельсинки (Финляндия): барабанщиком и вокалистом Туомо Лассила, басистом Джоном Вихервя и гитаристом Стаффаном Страхлманом. До этого ребята играли в том же составе под названием "Black Water". Музыка раннего Stratovarius очень отличалась от того, чем это является сегодня. В ней явно чувствовалось… Читать полностью... "Stratovarius" (объединение слов Stratocaster (марка электрогитары фирмы Fender) и Stradivarius (итальянский скрипичных дел мастер)) - финская пауэр метал-группа, была основана в 1984 году тремя парнями из Хельсинки (Финляндия): барабанщиком и вокалистом Туомо Лассила, басистом Джоном Вихервя и гитаристом Стаффаном Страхлманом. До этого ребята играли в том же составе под названием "Black Water". Музыка раннего Stratovarius очень отличалась от того, чем это является сегодня. В ней явно чувствовалось влияние "Black Sabbath" и Оззи Осборна. В конце 1984 года басист Джон покинул группу, а ему на замену был взят Йирки Лентоне, ранее выступавший вместе с Тимо Толкки в команде "Road Block". В 1985-м Стаффану надоело играть в Стратовариусе, и за неделю до планировавшегося концерта в Дании он ушел из группы. Туомо Лассила позвонил Тимо Толкки и попросил его присоединяться к ансамблю, и тот согласился. В то время роль вокалиста все еще исполнял Туомо, но скоро стало очевидно, что его голосовой диапазон не подходит для музыки, которую исполняли "Stratovarius". Но подходящего певца найти не удалось и вокальные партии взялся исполнять Толкки. С этого момента саунд группы стал более похож на сегодняшний - очень мелодичный с влиянием музыки Ричи Блэкмора и стиля барокко. После серии концертов в Хельсинки в 1987 году музыканты записали первую демоленту, содержащую песни "Future Shock", "Fright Night" и "Night Screamer". "Stratovarius" взяла под крыло финская компания "CBS". Тогда же в команде появился клавишник Антти Иконен. В 1988-м вышел первый сингл "Future Shock/Witch Hunt". В 1989-м вышел еще один, "Black Night/Night Screamer", а за ним появился дебютный альбом "Fright Night". В том же году команда много гастролировала, включая выступления вместе с "Anthrax" и другими известными металлистами. В конце года состав покинул басист Йирки Лентонен. Следующую запись "Stratovarius" финансировали сами, поскольку "CBS" потеряла к ним интерес. Басовые партии записывал Тимо, хотя в команду был принят новый басист Яри Бем. Но стиль игры последнего не соответствовал музыке "Стратовариуса", и его попросили уйти. Второй альбом под названием "Stratovarius II" был выпущен в Финляндии в начале 1992-го. Спустя некоторое время он появился на прилавках европейских магазинов как "Twilight Time". Вскоре диск попал в Японию, где целых пять месяцев торчал в десятке лучших импортных пластинок. Группа получила контракт от "JVC Victor Entertainment", которая в 1993 году выпустила альбом в Японии. Под конец сессий для нового диска в команде появился новый басист Яри Кайнулайнен. В то время Туомо провалялся в больнице 8 недель, и запись заканчивалась при участии Сами Куоппамаки. Наконец в начале 1994 года третий альбом "Dreamspace" был выпущен во всем мире. Этот релиз заслужил высокую похвалу критиков. После успешных японских гастролей группа снова засела в студии. Тимо Толкки параллельно успел записать сольный альбом "Classical Variations and Themes". Тогда же Тимо решил, что "Stratovarius" должны найти себе нового певца. Так в группе появился Тимо Котипелто. Записанный при его участии альбом "Fourth Dimension", разошелся тиражом вдвое большим, чем его предшественник. После изнурительных гастролей по Европе и Японии в команде начались разногласия, в результате чего из состава ушли "старички" Туомо Лассила и Антти Иконен, а в группу были приняты барабанщик Йорг Майкл и клавишник Йенс Йоханссон. Новый диск стал большим шагом вперед для "Stratovarius". С новым свежим саундом, привнесенным Йоханссоном и Майклом, получился драматично-мелодичный металлический альбом. К его записи были привлечены хор из 40 человек и струнный оркестр. Альбом содержал классические вещи "Stratovarius", такие как "Father Time", "Eternity" и "Will the Sun Rise?". Следующий диск "Visions" вышел в апреле 1997-го и сразу же оказался на 5-й позиции финских чартов. Альбом быстренько достиг золотого статуса. Во время последующего тура был записан "живой" двойник "Visions of Europe", который был выпущен в марте 1998-го. Новый альбом "Destiny" занял в финских чартах верхнюю строчку еще до его официального выхода. В 1999 году "Stratovarius" был признан в Финляндии лучшей металлической группой, а Тимо Толкки – лучшим музыкантом. Всю вторую половину 1999 года музыканты STRATOVARIUS были заняты записью своего следующего студийного альбома, который был выпущен студией Nuclear Blast Records 28 февраля 2000 года. От "Infinite" ожидали чуда, и чудо произошло - альбом оказался чрезвычайно успешным и вскоре стал золотым в Финляндии. Это был уже третий подряд золотой диск STRATOVARIUS. В конце 2000 года, когда группа вернулась из своего самого долгого и наиболее удачного за всю предыдущую историю турне, музыканты решили сделать перерыв на неопределенный срок, которым воспользовались для записи своих сольных проектов. В 2001 году группа выпустила диск "Intermission", на который вошли редкие бонус-треки, несколько каверов на композиции других групп и четыре новые вещи. После целого года молчания летом 2002 года группа снова обосновалась в студии для работы над альбомом "Elements Pt. I". По мнению самих музыкантов, этот альбом станет самым эпическим и симфоническим альбомом группы. Релиз планируется на 27 января 2003 года, и, конечно же, за релизом последует очередное турне группы, которое начнется 19 марта в Финляндии. После всех пертурбаций, через которые прошла группа в 2004 году, мы рады сообщить, что Stratovarius воссоединились в классическом составе: Тимо Толкки (Timo Tolkki), Тимо Котипелто (Timo Kotipelto), Йорг Майкл (Jörg Michael), Яри Кайнулайнен (Jari Kainulainen) и Йенс Йохансон (Jens Johansson). В октябре 2007 года Тимо Толкки заявил, что распускает группу Stratovarius. Причиной тому послужили внутренние конфликты. 20 мая 2008 года Тимо Толкки безвозмездно передал права на использование названия "Stratovarius" Тимо Котипелто, Йоргу Михаэлю и Йенсу Йохансону. Они намерены продолжать группу, в то время как Толкки сконцентрируется на своей новой группе — Revolution Renaissance. В марте 2009 года Stratovarius в обновленном составе выпускает альбом "Polaris" и отправляется в международное турне в его поддержку. В ноябре 2010 года вышел EP под названием Darkest Hours с новой одноимённой песней, бонус-треком и парой живых записей. Скрыть...
Популярные аккорды Stratovarius:
алфавиту | просмотрам | случайно
  • Вступление Em, C
    
    Em                                                   C
    Here in the Universe I find some things that are so hard to understand 
    Em                                                C
    The vastness of…
  • intro            
    |------------------------------------------------------------------------------------------|
    |----2-----2-4----4-5-----5-7-----10-9----2-4----4-5-5-4-5-2-----2-4-----4-5-5-7-5-4-5-2---|
    |------------------------------------------------------------------------------------------|
    |------------------------------------------------------------------------------------------|…
  • Am                 Dm
    Look around do you see, 
            G           Am
    so many things have changed. 
                   F       Dm
    And you should know by now, 
             E                   Am  
    I never meant to hurt you at all.…
  • intro                                    verso
    |------------------------------------||-------------------------------------|
    |-----------------------------------*||------------------------------------*|
    |----0------------------------0-----*||------------------------------------*|
    |-------------1---1-----3------------||---5*-------3---1*-------3*-------5*-|
    
    coro
    |----------------------------------------------------------------------------|
    |---------------------------------------------------------------------------*|
    |-------------------------------------------------------------------------2-*|
    |---5--------1*--------5----------1*--------3---3-------1---1------3---3-----|
    
    verso
    |------------------------------------------|
    |-----------------------------------------*|
    |-----------------------------------------*|
    |---5*---------3---1*--------3*-------5*---|
    
    la…
  • INFO: These are very simply to play and it's good for training
    
    E---------------------------------------------------
    B--0-2-4---5-4-2-2--4-5-4-2-2-0-0-2-0-0---4-2-2-----
    G--------1------------------------------1-----------
    D---------------------------------------------------
    A---------------------------------------------------
    E---------------------------------------------------
    
    E---------------------------------------------------
    B--4-5-4-2-4---5-4-2-2--4-5-4-2-2-0-0-2-0-0---4-2-2-
    G------------1------------------------------1-------
    D---------------------------------------------------
    A---------------------------------------------------
    E---------------------------------------------------
    
    Then…
  • Tune down a half step
     
     
    Intro/Main Theme
    Riff 1 (4x)
     
    e(-----------------------------------------------------------------
    B(-----------------------------------------------------------------
    G(-----------------------------------------------------------------
    D(-12-0-0-0-0-12-0-0-0-0-7-0-0-8-0-0-0-0-8-0-0-0-0-5-0-0-7-0-0-0-0-
    A(-----------------------------------------------------------------
    E(-----------------------------------------------------------------
    P.M.…
  • Tune Ѕ down
    Acoustic
    
    Intro riff
    |3------3-2-0-----------0-----0----------------------------0------3----2------2h3p2------0----|
    |---0----------3----3-----1-----3-1--0----0--1------1-0-------1-----1-----3---------3------3--|
    |-----0----------4----------0----------0--------2-------2-------0-----------2---------2------2|
    |2------------------------------------------------2--------------------0----------------0-----|
    |--------------2--------3--------------------0-------------3----------------------------------|
    |------------------------------------3--------------------------------------------------------|
    
    
    |-0-2--3------3-2-0-----------0-----0----------------------------0------3----/5------5--------|
    |---------0----------3----3-----1-----3-1--0----0--1------1-0-------1-----1------3-----3------|
    |-----------0----------4----------0----------0--------2-------2-------0------------2-----2----|
    |------2------------------------------------------------2---------------------0---------------|
    |--------------------2--------3--------------------0-------------3----------------------------|
    |------------------------------------------3--------------------------------------------------|
    
    
    
    1st…
  • Intro:
    
    B5                                     A5                         H5 D5 A5
                                                
    Late at night I find myself again      wondering and watching TV
    
    B5…
  • Tune down Ѕ step!
    
     Clean sound
    
    E----------0-----------0------------0-----------0------------0-----------0------------0-------------------------|
    B----------0-----------0------------0-----------0------------0-----------0------------0-------------------------|
    G-------5-----------5------------7-----------7------------5-----------5---------------9-----------9--------10-9-|…
  • Intro:
    accoustic guitar
    e:------14-15-17-15-14---------14-15-17-15-14----------14-15-17-15-14-----19-17-19-15-17-14-15-
    B:---17----------------17---17----------------17---17----------------17------------------------
    G:---------------------------------------------------------------------------------------------…
  • Tune Down 1/2 step!
    				 Verse 2 (at 0:43)
    E-------------------------------------0---0------0----------0---0-------0--------0-|
    B-----------|------------------|------6----------6----------6-----------6--------6-|
    G---Intro---|-----Verse-1------|------7-----7----7---7------7------7----7--------7-|
    D--(Piano)--|-(Vocals-&-Piano)-|----7---------7-----------7----------7---------6---|
    A-----------|------------------|--5---------------------5--------------------7-----|
    E----------------------------------------------------------------------------------|
    
    E-------------0-0------0-----------------0---0--0-------0-/3--------0---/3--------3|
    B--6----------6-6------6--6--------------3---3----3-----3--3--------3----3--3-----3|
    G------7------7-7------7-----7-----------3---3-------3--3--3--------3----3-----3--3|
    D--------6-----------6---------6-------0--------------------------0----------------|
    A----------7-------7-------------7-------------------------------------------------|
    E------------------------------------3--------------------------3------------------|…
  • Tune Down 1/2 Step! 
    
      Guitar & Keyboard Intro:
    E-----------------------------------------------------------------------------------|
    B--9~-9~--12-12~-10--9-h10p9----------10-10~-9-h10p9--------/12--10-9--------9~-b(10|
    G----------------------------11~-11~-----------------11--9~------------11-9---------|
    D-----------------------------------------------------------------------------------|
    A-----------------------------------------------------------------------------------|
    E-----------------------------------------------------------------------------------|
    
    E-----------------------------------------------------------------------------------|
    B)r9------9h10p9----9~-9~--12-12~--10-9-h10p9----------10-10~--9-h10p9-------/12--10|
    G----11~~--------11---------------------------11~-11~------------------11-9~--------|
    D-----------------------------------------------------------------------------------|
    A-----------------------------------------------------------------------------------|
    E-----------------------------------------------------------------------------------|…
  • Tuning: A*EADG (One note for the A* string, that pissed me off) 
    
    Fast part 1 (Guitar starts, then you play a single note, rest, and fast run)
    Play twice
    G |----------------------------------------------------------------|
    D…
  • Tune Down 1/2 Step!!! + Dropped Eb to Db: (Db, Ab, Db, Gb, Bb, Eb)
    
      Intro (Gtr.1)
    E----------------------------------------------------------------------------------|
    B----------------------------------------------------------------------------------|
    G*--9-7----9--7-----9-7----9--7-----10-9----10--9-----10-9----10--9-----9-7----9--|
    D*------7--------7------7--------7-------8---------8-------8---------8-------7-----|
    A----------------------------------------------------------------------------------|
    D----------------------------------------------------------------------------------|…
  • Tune down a half step
      
    Intro/Main Theme
    Riff 1 (2x)
     
    e(---------------------------------------------------------------------
    B(---------------------------------------------------------------------
    G(-9-7---9-7---9-7-9-7---9-7---10-9---9-7---9-7---9-7-9-7---9-7---10-9-
    D(-8-8-8-8-8-8-8-8-8-8-8-8-8-8--8-8---7-7-7-7-7-7-7-7-7-7-7-7-7-7--7-7-
    A(---------------------------------------------------------------------
    E(---------------------------------------------------------------------
    P.M.…
  • Tune down a half step
    
    Intro/Main Theme (Choir)
    
    Riff 1 (2x)
    
    e(-------------------------------)------------------------
    B(-------------------------------)------------------------
    G(--------5=---------------------)------------------------
    D(---2=---5=---2=---7=---7/-9=---)---7=---4=-------2===---
    A(---2=---3=---2=---7=---7/-9=---)---7=---4=-------2===---
    E(---0=--------0=---5=---5/-7=---)---5=---2=---2-3-0===---
    P.M.…
  • Tune down a half step
      
    Intro
     
    e(------------------)
    B(------------------)
    G(---7=---7=---7=---)
    D(---7=---7=---7=---)
    A(---5=---5=---5=---)
    E(------------------)
     
     
    Riff 1
     
    e(--------------------------------------------------------------------
    B(-8(10)-8-6-6-8-10-10-10(11)-10-8=-8-10-11-11(13)-11-10-8/-6-8-8(10)-
    G(--------------------------------------------------------------------
    D(--------------------------------------------------------------------
    A(--------------------------------------------------------------------
    E(--------------------------------------------------------------------…
  • Tune Down 1/2 step!
    
    E----------------------------------------------------------------------------------|
    B----------------------------------------------------------------------------------|
    G----------------------------------------------------------------------------------|
    D------9--9-----10--10--7-9-10------9--9-----7--7--------------9--9-----10--10-7-|
    A--7-7------7-7------------------7-7------7-7------10-9-7--7-7------7-7-----------|
    E----------------------------------------------------------------------------------|…
  • Tune down a half step
    
    
    Intro/Main Theme
    Riff 1 (4x) with addition
                                                                 addition
    e(----------------------------------------------------------)--------
    B(----------------------------------------------------------)--------
    G(---9-9-----9---10-10-----10---7-7-----7---4---5---6---7---)-9------
    D(---7-7-----7---10-10-----10---7-7-----7---2---3---4---5---)-7------
    A(-------0-0---0-------0-0----0-----0-0---0---0---0---0---0-)--------
    E(----------------------------------------------------------)--------
    P.M.…
  • E   (INTRO)           E                                    
    E---|---------------------|----------------------|---------------
    B---|---------------------|----------------------|---------------
    G---|/9---9-----11---11---|-12---12-----14-12-11-|---------------
    D---|---9----------9------|----9-----------------|---------------
    A---|---------------------|----------------------|---------------
    E---|---------------------|----------------------|---------------…
  • Tune Down 1/2 step!
    
    		    Riff 1
    E----------------------------------------------------------------------------------|
    B-----------------|----------------------------------------------------------------|
    G--Intro-(Drums)--|----------------------------------------------------------------|
    D----(7-sec.)-----|----------9~~-----------7~~-----------5~~-----------7~~---------|
    A-----------------|----------7~~-----------5~~-----------3~~-----------5~~---------|
    E--------------------0-0--0--------0-0--0--------0-0--0--------0-0--0--------0-0--0|…
  • Tune Down 1/2 Step
      
    Intro:                                           Repeat 2x, plus    Verse 1
    e:---------------------------------------------------------------------------|
    B:-------7/8--7--5-------7/8--7--5-------7/8-10--8--7--|--8--5------|--------|
    G:-------6/7--6--4-------6/7--6--4-------6/7--9--7--6--|--7--4------|--------|
    D:-------4/5--4--2-------4/5--4--2-------4/5--7--5--4--|--5--2------|--------|
    A:--2-2-------------2-2-------------2-2----------------|------------|--------|
    E:---------------------------------------------------------------------------|…
  • E (gtr 1 - power choEds)            C C             
    E---||----------|---------|---------|-----------|-----------
    B---||----------|---------|---------|-----------|-----------
    G---||*---------|---------|---------|-----------|-----------
    D---||*--/9-5---|-7-4-----|--/9-5---|-7-4---5-5-|-----------
    A---||--------7-|-----5-3-|-------7-|-----5-3-3-|-----------
    E---||----------|---------|---------|-----------|-----------…
  • Tune down a half step
    
    Intro (Drums only)
    
    Main Theme
    Riff 1 (2x)
    
    e(-------------------------------------------------------
    B(-------------------------------------------------------
    G(-------------------------------------------------------
    D(-------4-----4-----4-------------4-----4-----4---------
    A(-------4-----4-----4-----5-2-----4-----4-----4-----3-2-
    E(---2-2-2-2-2-2-2-2-2-2-2-----2-2-2-2-2-2-2-2-2-2-2-----
    P.M.…
  • Tuning: Standard EADG
    
    Guitar plays first
    Intro (play twice)
    G|------------------------------------------------6431------------|
    D|111111111111111111111111111111111111111111111111----986486436431|
    A|----------------------------------------------------------------|
    E|----------------------------------------------------------------|
    
    Intro…
  • Tune Down 1/2 step !
    				      x2			  x2
    E-------------------------------------------------------12-11----------------------|
    B-----------------|----------------------|---------------------------|-------------------|
    G--Keyboard-intro-|----------------------|---------------------------|-------------------|
    D----(53-sec)-----|-11------------9--8---|-11------------9--8--------|--11~~-------------|
    A-----------------|--9---10---7---7--6---|--9---10---7---7--6--------|---9~~-------------|
    E-------------------------8---5------------------8---5-----------------------------------|…
  • Tune Down 1/2 step!
    
    Intro (Drums & Effects)
    								  Verse 1   	        x2
    E------------------------------------------------------------------7(----8)----7)----8)---|
    B---------------------------------------------------------------|--7)----7(----7(----7(---|
    G-------------------------------10-10-7-7-9-9-------------------|*-9(----9)----9)----9)--*|
    D------------------------6-7-9----------------9-9-7-7-6---------|*-9)----9(----9(----9(--*|
    A----------------6-7---8--------------------------------8-2~----|--7(----7)----7)----7)---|
    E-0---1-4-5-7--8------------------------------------------0~-------0)----0(----0(----0(---|…
  • Tune down a half step
    
    
    Intro
    Riff 1 (clean, let ring)
    
    e(-0-------0-------0-------0-------0-------0-------0-------0-------)
    B(---0-------0-------0-------0-------0-------0-------0-------0-----)
    G(-----6-------6-------6-------6-------6-------6-------6-------6---)
    D(-------6-------6-------6-------6-------6-------6-------6-------6-)
    A(-----------------------------------------------------------------)
    E(-----------------------------------------------------------------)…
  • Tune down a half step
    
    
    Main Theme
    Riff 1 (2x)
    
    e(-----------------------------------------------------------------
    B(-----------------------------------------------------------------
    G(----------------------------------9=-----------------------------
    D(-5-4-5---------------------5-4-5/-7=-4-5-4-5---------------------
    A(---------------------------------------------3-3-3-3-3-3-3-3-3-3-
    E(-------0-0-0-0-0-0-0-0-0-0---------------------------------------
    P.M.…
  • Tune Down 1/2 step!
    
       Intro
    E----------------------------------------------------------------------------------|
    B----------------------------------------------------------------------------------|
    G*--9---------10~---------------7---------9~------10------9----------10~-----------|
    D*--7----------7~---------------7---------7~-------7------7-----------7------------|
    A-----0-0-0-0------0-0-0-0-0-0-----0-0-0------0-0-----0-0----0-0-0-0------0-0-0-0-0|
    E----------------------------------------------------------------------------------|…
  • Am              E                 Am              Esus4   E
    
    e:-----0-----------------------0---|-------0---------------------0---|
    B:---------1-------------0-------0-|---------1-------------0-------0-|
    G:-------------2-------1---1-------|-----2-------2-------2---1-------|
    D:---2---2---2---2---2-------2-----|---2-------2---2---2-------2-----|
    A:-0-------------------------------|-0-------------------------------|
    E:-----------------0---------------|-----------------0---------------|
    
    e:-----0-------------------1-------|-----0-------------------1---0---|
    B:---------1-----------0-----------|---------1-------0---3-----------|
    G:-------------2---1---------------|-------------2-------------------|
    D:---------------------------------|---------------------------------|
    A:---------------------------------|---------------------------------|
    E:---------------------------------|---------------------------------|…
  • Tune down a half step
     
    Intro/Main Theme
    Riff 1 (4x)
     
    e(-5-0-7-0-8-0-5-0-10-0-8-0-7-0-8-0-5-0-7-0-8-0-5-0-10-0-8-0-7-0-4-0-
    B(-------------------------------------------------------------------
    G(-------------------------------------------------------------------
    D(-------------------------------------------------------------------
    A(-------------------------------------------------------------------
    E(-------------------------------------------------------------------…
  • Tunning: 1/2 Step Down D# G# C# F# A# D#
    
    D#|------------||
    A#|-------2----||
    F#|-----4---2--||x 6
    C#|---2--------||
    G#|-0----------||
    D#|------------||       
    
    D#|------------||
    A#|-------3----||
    F#|-----2------||x 2
    C#|---0--------||
    G#|------------||
    D#|-3----------||
    
    D#|-------5--0---||
    A#|-----3------3-||
    F#|---2----------||x…
  • Intro: Keyboard                                         
                                                           
                                                                
    E---|------------------------|------------------------------
    B---|------------------------|------------------------------
    G---|/12-----------11-----9--|------------------/1----------
    D---|------------------------|-------9----------------------
    A---|------------------------|------------------------------
    E---|------------------------|------------------------------…
  • Tune down 1/2 step!
    
     Riff 1     								x4  Riff 2
    E--12-13-12-10-9-10--12-13-15-13-12-10--12-13-12-10-9-10--12-13-15-18-17-----18-17-15----------|
    B-------------------------------------------------------------------------|-----------18-17-15-|
    G*-----------------------------------------------------------------------*|--------------------|
    D*-----------------------------------------------------------------------*|--------------------|
    A-------------------------------------------------------------------------|--------------------|
    E----------------------------------------------------------------------------------------------|…
  • Tune Down Ѕ Step!
    
     Clean sound
     Riff 1
    E----------------3-----------------------------3-----------------------------5----------------|
    B-------------0-----0-----------------------0-----0-----------------------0-----0-------------|
    G----------3-----------3-----------------3-----------3-----------------5-----------5----------|
    D-------2-----------------2-----------2-----------------2-----------4-----------------4-------|
    A----1-----------------------1-----1-----------------------1-----3-----------------------3----|
    E-0-----------------------------0-----------------------------0-----------------------------0-|
    
    E-------------3-----------------------------3-----------------------------3-------------------|
    B----------0-----0-----------------------0-----0-----------------------0-----0----------------|
    G-------5-----------5-----------------3-----------3-----------------3-----------3-------------|
    D----4-----------------4-----------2-----------------2-----------2-----------------2----------|
    A-3-----------------------3-----1-----------------------1-----1-----------------------1-----0-|
    E----------------------------0-----------------------------0-----------------------------0----|…
  • Tune Down 1/2 step !
    									       x2
    E----------13-17-20-18-17----------12-15-18-17-15--13-13-12-12-10-10-18-17---15-----13~~--|
    B-------13----------------------13-----------------------------------------------|--------|
    G--------------------------------------------------------------------------------|--------|
    D-------------------------3-5~~-----------6-----7------------5--3-------------5--|--------|
    A-2-3~~-------------------1-3~~-----------4-----5------------3--1--------3----3--|---3----|
    E-0-1~~------------------------------------------------------------------1-----------1----|…
  • INTRO                                                                        
    E---||---------------0-----------------0-----------------0--------------
    B---||------3-----3-----3-----3-----3-----3-----3-----3-----3-----3-----
    G---||*--------2-----------2-----2-----------2-----2-----------2--------
    D---||*-----0-----------------------------------------------------------
    A---||------------------------3-----------------2-----------------1-----
    E---||------------------------------------------------------------------…
  • INTRO:(Five times)
    Eb----------------------------------------------------------------------
    Bb----------------------------------------------------------------------
    Gb----------3--2--3/5--3--2-------------3--2--3--8--8--8----------------
    Db----------3--2--3/5--3--2-------------3--2--3--8--7--8----------------
    Ab-5------5-------------------5------5----------------------------------
    Eb-3-3333-3-------------------3-3333-3----------------------------------
    P.M(---)…
  • Tune down 1/2 step!
     
      Riff 1
    eb--------0---------------0----------------1-0-1------------0--0-0---------|
    Hb------1---0-1---1-----0---0-0--0-------1-------1--------1--------1-------|
    Gb----2---------2-----1--------1-------0-----------0-----------------2-----|
    Db------------------------------------------------------4------------------|
    Ab--0---------------0----------------0----------------0--------------------|
    Eb-------------------------------------------------------------------------|…
  • Tune down a half step
      
    Intro (Drums and Bass)
     
     
               Main Theme
               Riff 1 (2x)
     
    e(--------(-----------------------------------------------
    B(--------(-----------------------------------------------
    G(--------(-9=---------------------7=---------------------
    D(--------(-9=---------------------7=---------------------
    A(---x/---(-7=---------------------5=---------------------
    E(---x/---(------0-0-0--0-0-0--0-0------0-0-0--0-0-0--0-0-…
  • Keyboard solo (arr. for guitar)
    e: -------------------------------------------------------|------------------
    B: -------------------------------------------------------|------------------
    G: -11h12p11-------11-------------------------------------|------------------
    D:…
  • Tune Down 1/2 step !
    
    Acoustic Intro
            
                    x4                                        x4                                                                x4
    E-----------------------------------------------------------------------------------------------|
    B------------|--------------------------------|----------9------------9-----------9-----------9-|
    G------------|--------------------------------|-------------------------------------------------|
    D--------9---|-------9------9--------9-----9--|-------9------------9-----------9-----------9----|
    A-----9------|----9-----10--------9-----8-----|----9-----------10-----------9-----------8-------|
    E--7-----------7---------------7----------------7-----------7------------7-----------7----------|…
  • Tune Down 1/2 step!
    
      Intro (Keyboard & Guitar 1)
    E---------------/9--11-9----------------/11--13-11--------------/9--11-9-----------|
    B----/11--9-----------------/12--11--9--------------11--9-----------------12--11-|
    G*-----------11---------------------------------------------11---------------------|
    D*---------------------------------------------------------------------------------|
    A----------------------------------------------------------------------------------|
    E----------------------------------------------------------------------------------|…
  • Am	    G		    F		
    Now is the time for you to close your eyes
    Am		   G		F		D	
    They've seen much pain it's slowly filling your mind
    Am	   G		F	
    Pretty as they are but now so pale
    Am	     G			   F	Dm	G
    You better leave all…
  • ВСТУПЛЕНИЕ:
    
    1-я гитара:
       F#m                               D
    e|---------2---------------2-------|---------2---------------2-------|
    B--2-------2-------2---|-----3-------3-------3-------3---|
    G|---2---2---2---2---2---2---2---2-|---2---2---2---2---2---2---2---2-|
    D|-4---------------4---------------|-0---------------0---------------|
    A--------------------------------------------|
    E--------------------------------------------|
    
    2-я…
  • Normal Tune.
      Intro(gtr 1):                            Intro(gtr 2, enters in 3rd time)
    e:---------------------------------------------------------------------------|
    B:------------------------------------nx-|-----------------------------------|
    G:---------------------------------------|-----------------------------------|
    D:-----9--10--7--9--------5--7--4--5--4--|-----12--14--10--12--------9--10--7|
    A:---------------------------------------|-----------------------------------|
    E:--0---------------0--0--------------------0------------------0--0----------|…
  • Tune down Ѕ Step!
    
     Clean Sound		     
      Intro riff			     x9  Riff 1						  x3
    E-12-13-0-10-12-0-8-10-0-7-8-0-5-7-0-----------------------------------------------------------------------|
    B------------------------------------|--------------------------------------------|------------------------|
    G------------------------------------|---9-10-----7-9-----5-7-----4-5-----2-4-1~~-|---9-10-----7-9-----5-7-|
    D------------------------------------|--------------------------------------------|------------------------|
    A------------------------------------|-0------0-0-----0-0-----0-0-----0-0---------|-0------0-0-----0-0-----|
    E----------------------------------------------------------------------------------------------------------|…
  • Tune down Ѕ step!
    
    			  Clean sound
    		    x4 															 x4
    E----------------------------------------------------------------------------------------------0-2-------------|
    B-----------------|------------------------------------------------------------------------------------3-------|
    G-----------------|*---0-----------------------0------------------------0---------------------------2---------*|
    D-----------5-----|*------4-----------0------------4-----------0-----------4-----------0-----0----------------*|
    A-2----2----3-----|----------2-----3-----3------------2-----3-----3-----------2-----3-----3--------------------|
    E-0----0------------0-----------0-----------0------------0-----------0-----------0-------------------------3-2-|…
  • Вступление
    Am  F
    Am  C G
    Am  F G
    
    Am                           F
    These empty days are filling me with pain. 
    Am                       F
    After I left it seems my life is only rain. 
    Am                         F
    My…
  • Keyboard arranged for guitar (9 times alone than followed by Timo)
    E---||----------6-------------------------------------------------------
    B---||------------------------------------------------------------------
    G---||*---0-6-8---------------------------------------------------------
    D---||*-----------------------------------------------------------------
    A---||------------------------------------------------------------------
    E---||------------------------------------------------------------------
    
    
    
    Intro…
  • Tune Down 1/2 step !
    	
      Riff 1
    E----------------------------------------------------------------------------------------|
    B----------------------------------------------------------------------------------------|
    G*---------------------------------------------------------------------------------------|
    D*---------9---------------------------9-------------------------9-----------------------|
    A----------7---------------------------7-------------------------7-----------------------|
    E--0--0-0----0--0-0-0-0--0-0--0-0-0-0----0--0-0-0-0-0-0--0--0-0----0--0-0-0-0--0-0--0-0-0|…
  • Tune Down 1/2 Step!
    
      			         x2			      Gtr.2 with Riff 1A (x2)
    E--------------------------------------------------------------7)----7)-----8)-----8)----|
    B-----------------------------------|------------------------|-8(----8(-----8(-----8(----|
    G-----------------------------------|------------------------|-9)----9)-----9)-----9(----|
    D-----11-------9--------------------|------------------------|-9(----9(----10(----10)----|
    A------9-------7-------9-------10---|-10-9-10-12-10-9--------|-7)----7)----10)----10(----|
    E--0-0-0---0-0-0---0-0-8---0-0--8---------------------12-10----0(----0(-----8(-----8)----|…
  • Intro:
    
    e:-10h11p10p8-------------------------------------------------------10h11p10p|
    B:-------------11--10--8--7--8--7--------------------------------------------|
    G:---------------------------------8--7--5-----------------------------------|
    D:------------------------------------------8--7--5--4--7--8--5--7-----------|
    A:------------------------------------------------------5--6--3--5-----------|
    E:---------------------------------------------------------------------------|…
  • Keyboard-violin intro for guitar
    guitar 1
    e:--------------------------------------------------------------------------
    B:--------------------------------------------------------------------------
    G:--------------------------------------------------------------------------…
  • Intro
    2x
    |---------------------------------------------------------------------------------------------|
    |---------------------------------------------------------------------------------------------|
    |--3--2-----------------------3--2------------------------------------------------------------|
    |--------5--3--1---0--1--0----------5--3--1---/5--3--1--0-------------------------------------|
    |-----------------------------------------------------------3---------------------------------|
    |---------------------------------------------------------------------------------------------|
    |…
  • Intro 
    
    Backround noises,drums,synth, (57 sec.) 
    
    then
    
    E------------------------------------|
    B------------------------------------|
    G------------------------------------| 
    D-10--9--7--5-3--2-------(2)----(2)--| x2
    A-10--9--7--5-3--2-------(2)----(2)--|
    E--8--7--5--3-1--0-------(0)----(0)--|…
  • Tune down 1/2 step!
    
    E----------------------------------0-----------------------------------------------------------|
    B----------------------------1-0-4---1-0---1-0-----0-------------------------------------------|
    G----------------------0-4-2-------------2-----2-0---2-0---2-0---------------------------------|
    D----------------1-2-4-----------------------------------4-----4-2-1-2~--*--/9-----------------|
    A--------2-0-3-2---------------------------------------------------------2--/7-----2~---------|
    E--0-2-3-----------------------------------------------------------------0---/------0~---------|…
  • Tune Ѕ down
    Intro
    4x
    |--p.m-----|------------p.m->----------------------p.m->----------------------------------------|
    |-----------------------------------------------------------------------------------------------|
    |-----------------------------------------------------------------------------------------------|
    |----------------9--7--9----------------/12--10--7----------------9--7--9--/12--10--9--7--9-/10-|
    |-7-7-7-7-7--------------7-7-7-7-7-----------------7-7-7-7-7------------------------------------|
    |-0-0-0-0-0--0-0---------0-0-0-0-0--0-0------------0-0-0-0-0--0-0-------------------------------|
    
    
    |--------------------------------------------------20-19-17--19-17-----17-----------------------|
    |--b-------Ѕ-------------Ѕ--------------Ѕ------------------20-----20-19--20-19-17-20-19-17-16-17|
    |-14~-----11-11--9--8~---8--8--6--8~---11-11--9--8~---------------------------------------------|
    |--4----------------4--------------4-------------4----------------------------------------------|
    |--2----------------2--------------2-------------2----------------------------------------------|
    |-----------------------------------------------------------------------------------------------|
    
    
    1st…
  • Intro								          x4
    E-------------------------------------------------------------8-7-13-12-16~~---19-17--|
    B--------------------------------------------------------10-9-----------*----|--------|
    G---------7-----------------7----------------7---------9---------------------|--------|
    D--7-9-10---10-9-10--7-9-10---10-9-6--7-9-10---9-10-9------------------------|--------|
    A----------------------------------------------------------------------------|--------|
    E-------------------------------------------------------------------------------------|
    *=Dont…
Наверх