Аккорды «Sugarcult»

Sugarcult
Sugarcult - американская поп-панк/пауэр поп/рок-группа из Санты-Барбары, Калифорния. Образована в 1998 году и в настоящее время состоит из гитариста/вокалиста Тима Паньотта (Tim Pagnotta), гитариста Марко ДеСантиз (Marko DeSantis), также известного как Марко 72 (Marko 72), бас-гитариста/вокалиста Эйрин Олдер (Airin Older) и барабанщика Кенни Ливингстона (Kenny Livingston). Тим Паньотта познакомился с будущим барабанщиком Беном Дэвисом (Ben Davis) во время перекура в школе. Дэвис (который тогда… Читать полностью... Sugarcult - американская поп-панк/пауэр поп/рок-группа из Санты-Барбары, Калифорния. Образована в 1998 году и в настоящее время состоит из гитариста/вокалиста Тима Паньотта (Tim Pagnotta), гитариста Марко ДеСантиз (Marko DeSantis), также известного как Марко 72 (Marko 72), бас-гитариста/вокалиста Эйрин Олдер (Airin Older) и барабанщика Кенни Ливингстона (Kenny Livingston). Тим Паньотта познакомился с будущим барабанщиком Беном Дэвисом (Ben Davis) во время перекура в школе. Дэвис (который тогда играл на бас-гитаре) и Паньотта начали регулярно репетировать вместе. Чуть позже Паньотта познакомился с Эйрин Олдер в музыкальной школе, где Паньотта часто переписывал работы Эйрин. Они постепенно стали хорошими друзьями, и Паньотта предложил Эйрин присоединиться к их рок-группе в качестве бас-гитариста, в то же самое время Дэви стал барабанщиком. Марко ДеСантиз присоединился к коллективу после того, как он познакомился с Паньоттой в гримерке перед концертом Superdrag. Встреча произошла во многом благодаря тому, что Паньотта был одет практически так же, как и ДеСантиз. Паньотта предложил ДеСантиз присоединиться к группе фактически сразу же, даже без прослушивания. Дебютный альбом группы (Eleven) был выпущен в 1999 году. Их второй альбом, Wrap Me Up in Plastic, был выпущен всего год спустя. В 2001 году группа выпустила уже третий альбом Start Static, в который вошли такие хиты, как "Pretty Girl", "Bouncing Off the Walls" и "Stuck in America". Альбом Start Static включал в себя ряд треков, которые также вошли и во второй альбом. В мае 2002 года группа выпустила новую версию альбома Wrap Me Up in Plastic, в которую вошли песни из первого и второго альбомов группы, а также новые работы. В 2003 году Бен Дэвис официально покинул группу. Бен регулярно пропускал шоу группы после выпуска альбома Start Static по причинам злоупотребления алкоголем и покинул Sugarcult, чтобы справиться с этой проблемой. Паньотта и Дэвис были близкими друзьями, поэтому Паньотта посвятил ему песню "Champagne" о его проблемах, приведших к уходу из группы. На место Дэвиса был приглашен Кенни Ливингстон, бывший барабанщик группы Lefty. Группа Sugarcult совместно с Green Day участвовала в туре по Японии в течение одной недели в 2003 году. 13 апреля 2004 года группа выпустила очередной альбом - Palm Trees and Power Lines, включающий в себя такие хиты, как "Memory" (активно показывавашийся на MTV и использовавшийся во время игр НХЛ в 2005 году) и "She's the Blade". Группа успешно отыграла на основной сцене Warped Tour 2004, а также играла на разогреве у Green Day в ходе их турне American Idiot и у Blink 182 в ходе их европейского турне. В 2005 году Sugarcult выпустили альбом с записью живых исполнений Back to the Disaster. Их последний студийный альбом - Lights Out - был выпущен 12 сентября 2006 года. За выпуском данного альбома сразу же последовали два гастрольных тура (осенний и зимний). В осеннем турне приняли участие группы So They Say, Maxeen, Halifax и Spill Canvas. Зимнее турне проходило при участии групп Meg and Dia, Damone, The Pink Spiders, All Time Low, и The Adored. В 2008 году Sugarcult собираются принять участие в австралийском фестивале Australian Soundwave Festival. В 2009 году группа решила сделать перерыв в своём творчестве на год, в честь своего десятилетия.Сейчас они уже гастролируют, и последний концерт датируется апрелем 2011 года.Значит ли это, что нас ждёт новый альбом? Дискография Альбомы: Eleven (1999) Wrap Me Up In Plastic (2000) Start Static (2001) Palm Trees and Power Lines (2004) A Hard Day's Night (2005) Back to the Disaster (Live) (2005) Lights Out (2006) Скрыть...
Популярные аккорды Sugarcult:
алфавиту | просмотрам | случайно
  • Verse (0:17)
    
    G|----------------------------------------------------------------------|
    D|-----------------------------------44444444444444444------------------|
    A|-------------------6666666666666666-----------------------------------|
    E|--44444444444444444---------------------------------4444444444444444--|…
  • Standard tuning - capo on 1st fret
    
    intro:
    e--------0-------0-------0-------0-----------------------------------|
    B----1-------1-------1-------1-----------3-------3-------3-------3---|
    G------2---2---2---2---2---2---2---2-2-------4-------5-------4-------|
    D--------------------------------------3---3---3---3---3---3---3---3-|…
  • INTRO:
    
    e|-----------------------| (2x)
    B|-----------------------|
    G|------------6-6--x-----|
    D|---3--x-----6-6--x-----|
    A|---3--x-----4-4--x-----|
    D|---3--x----------------|
    
    e|-----------------------|
    B|-----------------------|
    G|------------6-6---6-6--|
    D|---3--x-----6-6---6-6--|
    A|---3--x-----4-4---4-4--|
    D|---3--x----------------|
    
    e|---x-x-x-x-x-x-x-x-----|
    B|---x-x-x-x-x-x-x-x-----|
    G|---x-x-x-x-x-x-x-x-----|
    D|---x-x-x-x-x-x-x-x-----|
    A|---x-x-x-x-x-x-x-x-----|
    D|---x-x-x-x-x-x-x-x-----|…
  • e-------------------
    b-------------------
    d-------6-6-4-4-4-4- x8 on the first refrain
    g--4-4--6-6-4-4-4-4-
    a--4-4--4-4-2-2-2-2-
    E--2-2--------------
    
    I'm bouncing off the walls again, I'm looking like a fool again
    I threw…
  • Intro/Chorus
    
    Guitar 1 (x4)
    
    e|------------------------------------|
    B|------------------------------------|
    G|----------5-5---5-------------------|
    D|---3-3---35-5---58-8---8/7/8/7------|
    A|---3-3---33-3---38-8---8/7/8/7------|
    E|---1-1---1-------6-6---6/5/6/5------|
    
    Guitar…
  • Intro/Chorus 
    
    G-7----------------7-----------7==================|
    D-----7---5---7--------7---5----------------------|
    A-------------------------------------------------|
    E-------------------------------------------------|
    
    
    G-------------------------------------------------|
    D-9-------5---5-4===------------------------------|
    A-------------------------------------------------|
    E-------------------------------------------------|
    
    
    G-----------------------------------7=============|
    D-9---7---5---7-----9---7---5---7-----------------|
    A-------------------------------------------------|
    E-------------------------------------------------|…
  • Normal tuning 
    
    Intro:
    Guitar 1
    e|----4-2----4-2----4-2------------|       |---4-2---4-2---4-2---------| Let
    B|--0------0------0------0--4p2h4--|       |-0-----0-----0------0/4----| ring
    G|---------------------------------|x3…
  • Tuning Eb
                                                                         |
    Key
    [ (#) optional
    Intro and verse 1:
        1 & 2 & 3 & 4 &|1 & 2 & 3   & 4 &|1 & 2 & 3  &|1 & 2 & 3 &
    eb||---------------|-----------------|------------|-----------|
    Bb||--------3------|-------(0)-------|-------(0)--|-----------|
    Gb||--------4------|--------4--------|--------4---|--------4--|
    Db||----4-------4--|----4-------4----|----4-------|----4------|
    Ab||2--------------|-----------------|------------|-----------|
    Eb||---------------|3----------------|0-----------|2-3--------|…
  • Intro:
    |-----------------------------------------------------------|
    |-----------------------------------------------------------|
    |--3333-6666---------------3333-6666------------------------|
    |--3333-6666-44444444--x3--3333-6666-4~~-44-44--------------|
    |--1111-4444-44444444------1111-4444-4~~-44-44--------------|
    |------------22222222----------------2~~-22-22--------------|…
  • Intro: guitar 1
     
               e:---------------------------6----------------------
               b:---------------------------6----------------------
               g:--------8------------------7----------------------…
  • Intro: Am C }x4
    
             Am               C
    I want a girl, girl that won't talk back
         Am              C  
    And a job, job that gives me slack
         Am             C
    And a car, car that won't break down
          F…
  • Tuning: Standard (E A D G B E)
    
    Intro & Verse:
    
                                                        let this note ring
    E|--------------------------------------------------------------||
    B|-----3-------3----------------------------------3/5-----------||
    G|---2---2---2---2----------------------------------------------||
    D|-0----------------(Repeat…
  • Intro / Verse / Chorus / Bridge 1:
    e|-------------------------------------------------------------|
    B|-------------------------------------------------------------|
    G|-----------66666666-7777-6666-9999-7777----------------------|
    D|--77777777-66666666-7777-6666-9999-7777----------------------|
    A|--77777777-44444444-5555-4444-7777-5555----------------------|
    E|--55555555---------------------------------------------------|
    
    Bridge…
  • eb--------------------------------------------
    Bb-------------------3------------------------
    Gb-------7-----------4----------4/6------6/7--
    Db----7--7--------4--4----------5/7------7----
    Ab--5--------0--2-------0----5----7---7-------
    Eb-------------------------3------5-5---------
    
    eb-------------------------------------------------
    Bb-------------3-----------------------3-----------
    Gb-------0-----------0-----------0-----------0-----
    Db----4-----4-----4-----4-----4-----4-----4-----4--
    Ab--2----------------------2-----------------------
    Eb-------------------------------------------------…
  • intro an open c
    
    verse one:
                c   g  d 
    i drive all day to be with you
        c   g     d      
    all day to be black and blue
        c   g     d                c         g    d 
    all day to be face to face and watch you…
  • Intro:
    |----------------------------------------------
    |----------------------------------------------
    |----------------------------------------------
    |-3-3---7-7---6-6-----3-3---7-7---6-6---8-8----
    |-3-3---7-7---6-6-----3-3---7-7---6-6---8-8----
    |-1-1---5-5---4-4-----1-1---5-5---4-4---6-6----
    
    Verse
    |-----------------------------------------------------
    |-----------------------------------------------------
    |-----------------------------------------------------
    |-3-3---7-7---6-6------------3-3---7-7---6-6---8-8----
    |-3-3---7-7---6-6------------3-3---7-7---6-6---8-8----
    |-1-1---5-5---4-4------------1-1---5-5---4-4---6-6----
    (Palm…
  • Standard Eb
    time signature4/4
    
    Intro and verse
    
    eb-3---3---3---3---|3---3---3---3---|3---3---3---3---|3---3---3---3---|
    Bb-3---3---3---3---|3---3---3---3---|3---3---3---3---|3---3---3---3---|
    Gb---0---0---0---0-|--0---0---0---0-|--0---0---0---0-|--0---0---0-----|
    Db-----------------|----------------|----------------|--------------0-|
    Ab-----------------|----------------|----------------|----------------|
    Eb-----------------|----------------|----------------|----------------|
    
    eb-0---0---0---0---|0---0---0---0---|
    Bb-0---0---0---0---|0---0---0---0---|
    Gb-----------------|----------------|
    Db---2---2---2---2-|--2---2---2---2-|
    Ab-----------------|----------------|
    Eb-----------------|----------------|
    
    Chorus
    
    Chords:…
  • INTRO:
    
    e|---------------------------------------|
    B|---------------------------------------|
    G|---------------------------------------|
    D|---8-8-8----1-1-1----3-3-3----4-4-4----|
    A|---8-8-8----1-1-1----3-3-3----4-4-4----|
    D|---8-8-8----1-1-1----3-3-3----4-4-4----|
    
    e|-----------------|---------------------|
    B|-----------------|---------------------|
    G|-----------------|---------------------|
    D|---3-3-3----1-1--|--8-8-8----1-1-1-----|
    A|---3-3-3----1-1--|--8-8-8----1-1-1-----|
    D|---3-3-3----1-1--|--8-8-8----1-1-1-----|
    
    e|---------------------------------------|
    B|---------------------------------------|
    G|---------------------------------------|
    D|---3-3-3----6-6-6---4----3-------------|
    A|---3-3-3----6-6-6---4----3-------------|
    D|---3-3-3----6-6-6---4----3-------------|…
  • e--0 16X's----0000----0000----0000--------------
    b-----------------------------------------------
    g---------------------------------7-77----------
    d---------7-77----7-77----7-77----7-77-5-57-7-77    listen to the song
    a---------7-77----7-77----7-77----5-55-5-55-7-77…
Наверх