Аккорды «Sum 41»

Sum 41
Летом 1996 года четверо парней из города Аякс (Канада) - Deryck Whibley / Дерик Уибли (вокал, гитара), Steve Jocz / Стив Джоз (ударные), Dave Baksh / Дейв Бакш (гитара) и Cone McCaslin / Кон Маккаслин (бас) - решили сколотить панк рок-группу. Назвать группу решили Sum 41: по количеству летних дней, которые они провели вместе, мечтая покорить музыкальный Олимп. Свой первый альбом "Half Hour Of Power" Sum 41 записали и выпустили в 2000 году, подписав чуть ранее контракт с авторитетной Island Record.… Читать полностью... Летом 1996 года четверо парней из города Аякс (Канада) - Deryck Whibley / Дерик Уибли (вокал, гитара), Steve Jocz / Стив Джоз (ударные), Dave Baksh / Дейв Бакш (гитара) и Cone McCaslin / Кон Маккаслин (бас) - решили сколотить панк рок-группу. Назвать группу решили Sum 41: по количеству летних дней, которые они провели вместе, мечтая покорить музыкальный Олимп. Свой первый альбом "Half Hour Of Power" Sum 41 записали и выпустили в 2000 году, подписав чуть ранее контракт с авторитетной Island Record. После этого они получили возможность выступать на одной сцене с грандами поп-панк-рок-музыки The Offspring и Blink-182, что, несомненно, стало огромным опытом для группы. "Half Hour Of Power" и сами Sum 41 получили довольно лестные отзывы, но настоящую популярность и известность во всем мире им принес второй альбом - "All Killer No Filler". "All Killer No Filler" был представлен публике 8 мая 2001 года и изобиловал хитами о подростковых проблемах. Продюсировал альбом известный в "определенных кругах" Jerry Finn, работавший ранее с Blink-182 и Green Day. Альбом "All Killer No Filler" разошелся тиражом более 3-х миллионов экземпляров и признавался многими критиками лучшим панк-альбомом года. Несомненно, главным хитом альбома стала вещица с незамысловатым названием "Fat Lip". Nokia даже объявила, что эта песня - самая используемая мелодия для мобильного телефона. "Fat Lip" также вошла в саундтрек к молодежной комедии "Американский пирог 2". Вообще, Sum 41 оказались плодовитыми на саундтреки. Другая их вещь "What we're all about?" использовалась в фильме "Человек-Паук". Эту песню они записали вместе с легендарным Kerry King из группы Slayer, он же снялся в клипе на эту вещь. В ноябре 2002 года Sum 41 представили новый альбом - "Does This Look Infected?", который стал свидетельством того, что даже панк-рок-музыканты иногда взрослеют. Альбом получился более тяжелым и зрелым, в нем больше храбрости и уверенности. Однако там было уже меньше хитовых (читай: попсовых) вещей, что, как всегда, объективно показала дистрибьюция. Но, несомненно, такие песни из этого альбома, как "Still Waiting" (песня про американское 11 сентября), "Over My Head Better Off Dead" и "Hooch", ребята могут занести себе в актив. Парни из Sum 41 любят пошутить и поэтому создали шуточный металл-проект "Pain for Pleasure", в котором парoдируют металлические группы, всячески издеваясь над ними. Правда, это не мешает их дружбе с некоторыми такими группами. Например, они с удовольствием выступили на перформансе легендарной Metallica. В октябре 2004 года Sum 41 выпускает новый альбом "Chuck". Вообще, история возникновения названия альбома очень интересна. В 2004 году Sum 41 отправились в Конго, где снимали документальный фильм для благотворительной организации War Child Canada. Во время пребывания музыкантов в этой стране там началась гражданская война, и им пришлось искать хоть какой-нибудь способ вылететь в другое государство. Автором "плана спасения" Sum 41 был человек по имени Чак Пеллетье, сотрудник Организации Объединенных Наций. Под его руководством музыкантов вывезли из гостиницы, пребывавшей под постоянным обстрелом и поместили в безопасное место. Именно в честь Чака Пеллетье и был назван этот альбом. 11 мая 2006 года Дэйв Бэкш объявил о своём уходе из группы Sum 41, чтобы начать работу над новой группой Brown Brigade. Дэйв прокомментировал свой уход так: "Два года я был в депрессии, и, наконец, понял её причину. Я не могу развиваться как музыкант в узком направлении поп-панк, в котором работает группа Sum 41. Для меня музыка - это не просто способ весело проводить время. Это моя работа, карьера, жизнь. Я хочу постоянно идти вперёд. К сожалению, кроме меня никто в Sum 41 не стремится к новому. Я постоянно чувствовал, что мне не хватает кислорода". В своей группе Brown Brigade он - ведущий солист и гитарист. Дерик подтвердил уход Дэйва и сказал, что группа не будет искать четвёртого участника, а концертный гитарист, который заменит Дейва на время гастролей, не будет фигурировать в клипах, на альбомах и официальных фотосессиях. 15 июля 2006 года Дерик стал мужем Аврил Лавинь/Avril Lavigne. 4 сентября 2009 года пара официально развелась. 24 июля 2007 года Sum 41 тем же составом, за исключением ушедшего из группы Дэйва Бакша, выпустили свой пятый по счету студийный альбом "Underclass Hero" под тем же самым лейблом, что и все предыдущие Island/Aquarius. Альбом стал в Канаде платиновым ("Chuck" и "Does This Look Infected?" стали в Канаде дважды платиновыми, "All Killer No Filler" -- трижды, "Half Hour of Power" -- также платиновым) и золотым в Соединенных Штатах. 7 августа 2008 года Коун объявил, что все участники группы возьмут небольшой отпуск перед началом работы над следующим альбомом. Коун начал работать над вторым альбомом своей группы The Operation M.D.. Стив до конца лета играл в качестве концертного барабанщика у The Vandals. А Дерик отправился в турне по Азии с женой Аврил Лавин. Universal Music объявили, что на волне успеха диска «Underclass Hero» группа должна выпустить новый EP в 2009 году. 28 июня 2009 года Кон написал на официальном сайте группы, что новый альбом будет выпущен в 2010 году. 31 июля 2009 года в интервью Стив и Кон сказали, что новый альбом будет выпущен приблизительно летом 2010 года, хотя, возможно, и раньше. В том же интервью они сказали, что 5 или 6 песен уже готовы.Они также объявили, что запись альбома начнется 1 ноября. В одном из интервью журналу OK! Дерик сказал, что запись альбома ведется в пригороде Парижа. Он также сказал, что у них уже есть около 15-18 новых песен. 5 ноября 2009 года Дерик написал в блоге группы на MySpace, что продюсером нового альбома будет Джил Нортон, также было сказано, что к альбому написано уже 20 песен. В одном из интервью Том Такер подтвердил названия нескольких песен, это «Panic Attack», «Jessica Kill» и «Like Everyone Else». Практически все лето 2010 года группа провела на Warped Tour, это их четвёртое выступление на данном фестивале. 17 марта 2010 года группа закончила запись всех музыкальных инструментов для нового альбома в домашней студии Дерика Уибли. Новый студийный альбом получил название Screaming Bloody Murder и вышел 29 марта 2011 года. 6 июля 2010 года группа выложила в интернет первую песню с альбома, она называется «Scumfuck». 8 января 2011 года было объявлено о запланированном на 7 февраля запуске радиосингла «Screaming Bloody Murder». Почти во всем мире альбом вышел 28 марта 2011 года. Как говорит сам Дерик Уибли, новый альбом стал более тёмный, но в чем причина этого объяснить затрудняется: «Это очень трудно объяснить, они (песни) могут быть о чем угодно, потому что я даже не знаю, о чем они», - говорит Дерик в одном из интервью. Сначала новый альбом Sum 41 продюсировал Джил Нортон, но после того, как между ним и группой возникли разногласия по поводу видения нового альбома, Дерик сам стал продюсером. 17 апреля 2013 года Стив Джоз на официальной странице Facebook заявил, что покидает группу. 18 мая 2014 года Дерик Уибли рассказал на своём сайте, что был госпитализирован после того, как его печень и почка начали отказывать в результате беспробудного пьянства. В его официальном заявлении говорилось о том, что тот больше не допустит данной ошибки. В добавок ко всему, фронтмен упомянул о турах, в которые группа в скором времени отправится, и что ещё более важно - написании нового альбома. Скрыть...
Популярные аккорды Sum 41:
алфавиту | просмотрам | случайно
  • Intro:
    
    Clean: Em   x4
    
    Distorted: Em  Bm C Em  Bm C Bm Am Bm G Em  x2
    Em  Bm C Bm Am Bm G Em  x4, Em  Em  
    
    
    Verse 1: Beat switched from Standard 4/4 to 3/4
    Em
    I don't believe in 
    the secrets you keep…
  • Intro + Verse:	(I think that's this)
    [e--------------------------------------------------------
    B--------------------------------------------------------
    G--------------------------------------------------------
    D--------------------------------------------------------
    A------------10-14-14--------12---------9----------------
    E------12-12-----------10-10------10-10------------------]…
  • Fat Lip-Bass tab
    
    [G----------------------------------------------------------
    D--------------6------------4------------6------------4-2--
    A--------0-2----------0-2--------0-2---------0-2-----------
    E-----4------------4-----------4-----------4---------------]…
  • Вступление: Dm - A# - F - C
    
       Dm                   A#                     F
       I tried to be perfect but nothing was worth it
                  C                 Dm
       I don't believe it makes me real…
  • Стандартная настройка.
    
    Вообще, эта песня играется в две гитары, если же вы ее играете на одной,
    то лучше всего играть партии Guitar 1 за исключением первого бриджа.
    
    INTRO
    
    Guitar 1(Palm muted) So am I still waiting...…
  • B                          F#
    I haven't been home for a while
                               Abm  
    I'm sure everything's the same
                            E
    Mom and Dad both in denial
                                B
    An only…
  • Вступление:C G Am F
    C                                      B-C
    Ladies and Gentlemen of the Underclass,
    The presedent of the United States of America,
    Is Dead!
    C         Em\\H             Am 
    I dont belive in the politics,…
  • F#                       C#             H  (F#\\A# G#m C#\\G# F#)
    Remember when there was nothing else to do, 
    but lie in bed and wonder how it was always up to you, and no one else and,
    Early mornings, made by warnings,…
  • The tuning is a half step down
    
    Em                            C
       so maybe nothing else will ever be so clear
    G                  D
       or maybe that's only my fear
    Em                            C
       If just for one…
  • Bm                        D
    Some say we're never meant to grow up
       Em                    G
    I'm sure they never knew enough
       Bm      Dm           Em
    I know the pressures won't Go away
       G
    It's too late
    
       Bm…
  • F#m                 D    
     Can't step in my way 
    A                       E 
     Head first and love and dismay 
    F#m                        D 
     It's like beating the dead 
    A                          E 
     I can't stop going…
  • Данная песня, как и Still Waiting, 
      как и все песни этой группы играются в две гитары, причем обе
      со стандартной настройкой(E,B,G,D,A,E). Если вы ее играете на
      одном инструменте, то потимальное звучание будет при игре…
  • Intro : Eb
    B F# Eb B C# Eb
    B F# Eb B C# Eb
    All of us beleive
    That this is not up to you
    The fact of the matter is
    That it's up to me
    
    Eb B F#
    Hey, Hey, Hey
    Eb B C#
    Hey, Hey, Hey
    Let's Go
    
    Intro : B F# Eb B…
  • 1st Verse Pt. 1 (x2) Palm Muted		 1st Verse Pt. 2 (x2)
    [e--------------------------------------------------------------------------
    B--------------------------------------------------------------------------
    G----------------------------------------------------------------xx5-xx5---
    D-555-555-777-777-999-999-101010-101010--xx5-xx5-xx4-xx4-xx3-xx3-xx5-xx5---
    A-555-555-777-777-999-999-101010-101010--xx5-xx5-xx4-xx4-xx1-xx3-xx3-xx3---
    E-333-333-555-555-777-777----888----888--xx3-xx3-xx2-xx2-xx1-xx1-----------]…
  • Tuning: Standard EADGBe
    
    Chords used:
    Eb -   x68886
    Bb -   x13331
    Cm -   x35543
    Ab -   466544
    Fm -   133111
    B -    x24442
    Bb/D - x587xx
    
    
    Intro: Eb-Bb-Cm-Ab x4
    
    
    Verse 1:
    Eb               Bb/D
    Running fast…
  • D#m                C#
    I've said this before, 
               H         F#
    No matter how hard i try
    
    I can't help be bored, 
    While this world passes by
        D#m      C#       F#     C#   
    So this revelation's got no meaning, 
    We've…
  • Tuning: Standard EADGBe
    
    Chords used:
    Am - x02210
    F -  133211
    C -  x32010
    G -  320003
    Em - 022000
    
    
    Intro:
    Am         F
    Always The whole
    way through
    Am        F
    I'll stay true
    
    
    Verse 1:
    Am
    Calling your…
  • Вступление
    e---------------------------------|
    B---------------------------------|
    G---------------------------------|
    D---------------------------------|
    A6-----------4--6-----------4--2--|
    E|--4--5--7-----4--5--7-----|--4--5--7-----4--5--7--------|
    
    VERSE…
  • E          E\\G#      A           H
    What's the difference of never knowing at all?
    When every step I take is always too small
    Maybe it's just something I can't admit but lately
    I feel like I don't give a shit 
    
    Припев:
    E
    Motivation…
  • Bm
    
      Bm                        F#
    A jester of sorts you stand holding your courts
         G                  D     A/C#
    Over minions on Capitol Hill
         G                       Em
    In a bath full of blood I'm alone…
  • Tuning: 
    
    Deryck: Drop D
    Ebm - 111xxx
    E -   222xxx
    Abm - 666xxx
    Eb -  111xxx
    C#m - x46654
    C# -  x466xx
    F# -  444xxx
    B -   x24442 or x244xx 
    Bbm - x133xx
    F  -  333xxx
    
    Dave: Drop D
    
    Chords used: For Standard…
  • Intro: Dm-Am-C
    
    
    Dm               Am                C
    I've been waiting for something for so long
    C                             Dm
    To show me the answers that I want
      Am                                     C
    A reason…
  • Em                               C
    MAYBE! I'm not quite myself. . .MAYBE! I do need some help
    G             D
    Just my confusion,
    G             D
    Trust my delusion.
    Em
    Don't you,
    Regret you met me.
    C
    Go through,
    These…
  • Intro: (0:00)
    [E -------------------
    B -------------------
    G -----7-7-------77-- } x6
    D -7-X-7-7-5-5-X-77--
    A -7-X-5-5-5-5-X-55--
    D -7-X-----5-5-X-----]
    (0:15)  (Just play that note a lot)
    [E --------------------
    B…
  • Intro:		
    [G:------------------------------------------
    D:------------------------------------------
    A:--5~~~~---2~~~~-----------0~~~~-----------
    E:------------------3~~~~-------------------
    
    G:-----------------------------------------------------------
    D:-----7-----7-77-99-----------/4----5-----5----2-----2------
    A:--5-5--55-5--------2-22-22-22--------------0-0--00-00------
    E:--------------------------------3-3--3-33------------------
    
    Verse:		G:------------------------------------------
    D:------------------------------------------
    A:-55555555-22222222------------------------
    E:-------------------00000000-33333333------…
  • Tuning: Standard EADGBe
    
    Chords used:
    B -     x24442
    F#/Bb - x143xx
    Abm -   466444
    F# -    244322
    E -     022100
    
    
    Intro: B-F#/Bb-G#m--F#--E x2
    
    
    Verse 1:
    B              F#             Abm
      Address this letter…
  • Tuning: Standard EADGBe
    
    Chords used:
    Fm -   133111
    C# -   x46664
    G# -   466544
    Eb -   x68886
    Bbm -  x13321
    Eb/G - 365xxx
    
    
    Intro:
    
    Deryck: Fm--C#--G#--Eb
    
    Dave:
        E  E  E  E  E  E  E.  S    E  E  E  E…
  • Tuning: Standard EADGBe
    
    
    Chords used:
    G#m - 466444
    E -   022100 in Verses, 079900 in Chorus
    B -   x24442
    F# -  244322
    
    
    Intro:
    
    Dave:
           Abm            E             B              F#
    e|-------------|-------------|-------------|-----------------|
    B|-------------|-------------|-------------|-----------------|
    G|-------------|-------------|-------------|-----------------|
    D|--------1----|--------1----|--------1----|-----2-2-1-1-----|…
  • Вступление:D A G
    D                                  
    You said it once before, 
              G
    you don't do those things you used to anymore.
         D       A\\C#              Hm
    You say in doubt, were fading out,…
  • Tuning: Drop D
    
    
    Chords used: for Drop D
    D -    000xxx or 0577xx
    A -    777xxx or x022xx
    Bm -   999xxx or x244xx
    G -    555xxx
    A/C# - x476xx
    F#m -  444xxx
    
    
    Chords used: for Standard EADGBe
    D -    xx0232
    A…
  • Tuning: Standard EADGBe
    
    Chords used:
    B -     x24442
    F#/Bb - x143xx
    G#m -   466444
    F# -    244322
    E -     022100
    Eb/G -  365xxx
    Em -    022000
    C#m -   x46654
    
    
    Intro:
    
    Part 1: G#m--E--B--- x2, Pick slide
    
    Part…
  • intro:
    [A - E] F#m - Bm [A - E]  [half timed]
    
    A    E  F#m
    Look at me
    Bm
       who am i supposed to be?
         A         E
    what do i believe?
        A   E    F#m
    can you tell me?
    Bm
       since you made up your mind…
  • Вступление: E - Bsus - C#m - A }x2
    
    E                    Bsus
    I don't want this moment
    C#m     A
    to ever end
    E                    Bsus
    where everything's nothing
        C#m A
    without you
    E                    Bsus
    I'd…
  • Intro: Ab Em B F# X2 E
    B E Ab E              B E F#
    B
    Up in smoke, pop goes the culture
    Ab                E
    The tension blew it up
    B
    We're choking from a bleeding ulcer
    Ab                  E
    We eventually threw…
  • Tuning: Standard EADGBe
    
    Chords used:
    E -   022100
    B -   x24442
    C#m - x46654
    A -   x02220
    
    
    Intro: C#m-A-E-B x2
    
    
    Verse 1:
    C#m
    Take a look around you
    A
    consequence surrounds you
    E
    I would cross my heart…
  • Tuning: Standard EADGBe
    
    Chords used:
    E -    022100
    C#m -  x46654
    A -    x02220
    B -    x24442
    E/G# - 476xxx
    B/D# - x698xx
    
    
    Intro: E--C#m--B--A
    
    
    Verse 1:
    E
    Mad in a way 
          C#m
    but I don't say
    It's…
  • Tuning: Standard EADGBe
    
    Chords used:
    Em - 022000
    D -  xx0232
    C -  x32010
    B -  x24442
    G -  320033
    F# - 244322
    C# - x46664
    
    
    Deryck:
             Em          G   F#  Em  B   G
    e|-0-2-3-5-3-2-0---|-3-|-2-|-0-|---|-0-|-2-|
    B|---------------3-|---|---|---|-4-|---|---|
    G|-----------------|---|---|---|---|---|---|
    D|-----------------|---|---|---|---|---|---|
    A|-----------------|---|---|---|---|---|---|
    E|-----------------|---|---|---|---|---|---|…
  • Вступление: Dm,B,F,C - 2 раза
                Dm,B,F,C - 2 раза с фузом
    Dm                        B
    I'll never take part in the growing population
    F                     C
    Or waste my time with further education (hooha!)
    Forget…
  • This song is the easiest song to play on the album.
    
    Verse(fast singing bit)
    [e{----------------------------------------------------------}
    B{----------------------------------------------------------}
    D{-------------------------6-6------------------------------}
    G{----------6-6----2-2-----6-6---4-4------------------------}…
  • (1)[e:-----------------------------------------------------------------------
    B:-----------------------------------------------------------------------
    G:-----------------------------------------------------------------------
    D:---4-4-4-4-7-7-7-7-9-9-9-9-7-7-7-7--4-4-4-4-7-7-7-7-9-9-9-9-7-7-7-7----
    A:---4-4-4-4-7-7-7-7-9-9-9-9-7-7-7-7--4-4-4-4-7-7-7-7-9-9-9-9-7-7-7-7----
    E:---2-2-2-2-5-5-5-5-7-7-7-7-5-5-5-5--2-2-2-2-5-5-5-5-7-7-7-7-5-5-5-5----
    
    (2)e:----------------------------------------
    B:----------------------------------------
    G:----------------------------------------
    D:----------------------------------------
    A:---4--xxxx-xxxx-7-9--4--xxxx-xxxx-7-9---
    E:---2--xxxx-xxxx-5-7--2--xxxx-xxxx-5-7---
    
    (2)e:-----------------------------------------------------------------------
    B:-----------------------------------------------------------------------
    G:-----------------------------------------------------------------------
    D:---4-4-4-4-7-7-7-7-9-9-9-9-7-7-7-7--4-4-4-4-7-7-7-7-9-9-9-9-7-7-7-7----
    A:---4-4-4-4-7-7-7-7-9-9-9-9-7-7-7-7--4-4-4-4-7-7-7-7-9-9-9-9-7-7-7-7----
    E:---2-2-2-2-5-5-5-5-7-7-7-7-5-5-5-5--2-2-2-2-5-5-5-5-7-7-7-7-5-5-5-5----
    
    (4)e:----------------------------------------
    B:----------------------------------------
    G:----------------------------------------
    D:----------------------------------------
    A:---4--xxxx-xxxx-7-9--4--xxxx-xxxx-7-9---
    E:---2--xxxx-xxxx-5-7--2--xxxx-xxxx-5-7---]
    
    -
    
    УFu***nТ…
  • Tuning is standard
    
    Bm - A - Em - G
    
    Bm
    Last call for regret and defeat 
       A
    To finish the bottle full of empty dreams 
    Em
    Punch-drunk headed straight out of line 
     G
    Another excuse with no alibi 
    Em
    Hitchin…
  • H      G#m  
    This place reminds me of,
      E                   F#
    A time that's way too old.
    These thoughts have gathered up 
    The memories unfold
              E         F#              H            G#m
    But for now I don't see…
  • Intro: C D  C D  C D  C D  C D C A  x6
    
    
    Verse 1:
         C     D    C   D    C   D
    Oh I don’t know what you want and 
    C D    C      A      C   D
    I don’t wanna know I got you 
    C     D C   D    C D
    where I want and…
  • Tuning: Standard EADGBe
    
    Chords used:
    E -    022100 or 079900
    B -    x24442
    C#m -  x46654
    Abm -  466444
    A -    x02220
    B/D# - x698xx
    
    
    Intro: E--B--C#m--A x2, E--Abm-C#m--A--B-- x2
    
    
    Verse 1:
       E…
  • Tuning: Drop D
    
    Chords used: Drop D only
    F -  333xxx
    Eb - 111xxx
    D -  000xxx
    Bb - x133xx
    C -  x355xx
    
    Chords used: for Standard EADGBe
    F -  133211
    Eb - 68886
    D -  xx0232
    Bb - x13331
    C -  x32010
    
    
    Chorus:
    F…
  • Intro: Em--D-Em--D-Em--D-Em--G--D-- x4
    
    
    Verse 1:
             Em
    It's your last chance to
    find yourself in consequence
    G                 D
      It's so hard to find 
    a simple reason
    Em
      Maybe I'll find myself 
    with…
  • DADGBE Tuning
    
    Intro
    Guitar 1 plays this
    [------------------------------------------------------------------------------
    ------------------------------------------------------------------------------
    -8-888-888-888888-8-888-888-888888--------------------------------------------
    -8-888-888-888888-8-888-888-888888--------------------------------------------
    -6-666-666-666666-6-666-666-666666--------------------------------------------
    ------------------------------------------------------------------------------]…
  • Tuning: Drop D
    
    Chords used: Drop D only
    Em -   222xxx
    D -    000xxx
    G -    555xxx
    Bm -   999xxx
    D/F# - 454xxx
    
    Chords used: Standard EADGBe
    Em -   022000
    D -    xx0232
    G -    320033
    Bm -   x24432
    D/F# - 2x023x
    
    
    Intro:…
  • Tuning: Standard EADGBe
    
    Chords used:
    C -  x32010
    F -  133211
    G -  320033
    Am - x02210
    Dm - xx0231
    
    
    Intro: C--F--C--G--(hold)-F
    
    
    Verse 1:
    C  F
    Ah Not enough you
    C               G
    passed it for a while…
  • eb|--------------------------------------||
    Bb|--------------------------------------||
    Gb|----------------------------------22--|| play this twice and then go
    Db|---5-4-33---5-4-33---4-5-44---4-5-----|| into chord positions
    Ab|----------33-3-3---00-0-0---22-2-2----||
    Eb|-00-0-0-------------------------------||
    
    Em…
  • Tuning: Standard EADGBe
    
    Chords used:
    C - x32010
    F - 133211
    
    
    Intro: Stevo Drum Solo
    
    
    Verse: C-- x8
    
    Dave:
    e|------------------------------------------|
    B|------------------------------------------|
    G|-9-----9--10----10--12-------12--10----10-|
    D|-x-----x---x-----x---x--------x---x-----x-|
    A|-7-7-7-7---8-8-8-8--10-10-10-10---8-8-8-8-|
    E|------------------------------------------|
    
    
    C--F--…
  • Вступление:G C D G
    G               C     D          G
    As time passes by, direction unknown 
    You've left us now but we're not alone 
    Before you know it your cups overflown 
    You measured no one that I've ever known…
  • F
    Another day wasted out of time
     C
    I can't get out of this
     F
    Altered state of mind
     C
    I'm going overboard
     F
    My conscience meets decline
     C
    Into Reality
     C                   E
    I know this can't be fine
    
       F…
  • Intro: F#m--
    
    
    Verse:
    F#m                        E
       There's nothing left to say
                            D
    Cause you don't want to try
                         A   E
    And I don't want the pain
    F#m…
  • Intro: Em-- x4
    
    Guitar 2: continue intil Verses
    e|---------7-------|
    B|-8-----8-----8---|
    G|-----9-----9---9-|
    D|---9-------------| x8
    A|-----------------|
    D|-----------------|
    
    
    Verse 1:
    Em         G…
  • Tune Down
    
    Eb Ab C# F# Bb Eb
    
    Listen for strum patterns and when to change.
    
    Intro:
    (The first 2-3 measures are barely heard, so come in very softly)
    (The second Em-G change are in the same measure...Listen for it)
    
    
    D-Em-G-Em-G-D-Em-G-Em-G
    
    Verse:…
  • Intro: E--B/Eb-E----
    
    
    Verse 1:
    E              B/D#
      What am I to say
                           C#m
    I'm all wrapped up in apathy
        B                A        B/D#
    And I don't want to stay this way
    E…
  • Tuning: Standard EADGBe
    
    Chords used:
    Dm - xx0231
    F -  133211
    A -  x02220
    Gm - 355333
    Em - 022000
    
    
    Intro: Dm-F-Dm-F-Dm-F-A-- x4
    
    
    Verse:
    Dm                 F
    You don't have the answers
               Dm…
  • Tuning: Standard EADGBe
    
    Chords used:
    G# -   466544
    F# -   244322
    Fm -   133111
    C# -   x46664
    Eb -   x68886
    Bbm -  x13211
    G -    320033
    
    
    Intro: Ab-F#-Fm-C# x3, Ab
    
    
    Verse 1:
    Ab
      And I'm up and I
    F#
    don't…
  • G - D - Em - D - C - D
    
    G                         D
      it's so hard to say that i'm sorry
             Em    D           C    D
    i'll make everything alright
    G                                D
      all these things that i've…
  • solo from 1:19 to 1:38
    
    1:19 - 1:23
    e|--------------------------------|
    B|---8-9-8-9-8---------9-9-11-9-8-|
    G|-10----------10-8---------------|
    D|--------------------------------|
    A|--------------------------------|
    E|--------------------------------|
    
    1:24…
  • Tuning: Standard EADGBe
    
    Chords used:
    Ebm - x68876
    F# -  244322
    C# -  x46664
    B -   x24442
    Bbm - x13321
    
    
    Intro: Ebm--C#-Ebm--F#--C#-- x2
    
    
    Verse 1:
    Ebm          C# Ebm     C#
      Don't come to me with your
    Ebm…
  • G
    Trying to find a way
    Em
    Getting better everyday
           C                     D
    And I got you now I'm not alone
        G                      Em
    All I need in this life is one
              C          D
    One thing to believe…
  • Intro: Lead Guitar
    
    E|-----------------------------|
    B|-----------------------------|
    G|-----------------------------|
    D|----767----767----767--------|
    A|---7------7------7------7--9-|
    E|-00-----77-----55-----55-77--|
    
    
    Intro:…
  • Tuning: Standard EADGBe
    
    Chords used:
    C# -   x46664
    Ab -   466544
    Bbm -  x13321
    F# -   244322
    Ebm -  x68876
    Fm -   133111
    Ab/C - x365xx
    
    
    Intro:
    
    Mark Spicoluk's Bass Solo: C#-F#-Bbm-Ab- x4, F#-
    
    
    Verse…
  • Tuning: Standard EADGBe
    
    Chords used:
    B -   x24442
    F# -  244322
    A -   x02220
    E -   022100
    F#m - 244222
    Bm -  x24432
    C -   x32010
    
    I. Dave's Possesed Hair
    
    
    Intro: B-F#-E-A- x4
    
    
    Verse 1:
    B
      Ever get the…
  • Intro: Dm  Bb A F  Gm Dm  Bb A F  Gm Eb  x4, Dm   x2
    
    
    Verse: Piano, My Chemical Romance vibe here
          Dm
    While looking for the answers only 
    Bb                         Gm
    questions come to mind cos i've been…
  • Intro: (Guitar 1) 
    ------------------------------------------------------------------------------ 
    ------------------------------------------------------------------------------ 
    -11-11-111111111--1111-1111-11-11-1111111111-1111-1111------------------------…
  • Tuning: Standard EADGBe
    
    Chords used:
    C#m -  x46654
    A -    x02220
    E -    022100
    B -    x24442
    B/D# - x698xx
    F#m -  244222
    Abm -  466444
    
    
    Intro:
    C#m             A
      I need this to get me through
    C#m…
  • e|----------------------------------|
    B|----------------------------------|
    G|----------------------------------|
    D|-2-2---5-7---9--5-----------------|
    A|-2-2---5-7---9--3-----------------|
    E|-0-0---3-5---7--3-----------------|
    
    Chorus
    e|----------------------------------|
    B|----------------------------------|
    G|----------------------------------|
    D|-2-2---------9-7-2-2--------------|
    A|-2-2---------9-7-2-2--------------|
    E|-0-0---------7-5-0-0--------------|
    
    Intro…
  • Tuning: Drop D
    
    Chords used: Drop D only
    Dm -   000xxx
    Bb -   888xxx
    F -    333xxx
    C -    x355xx
    Gm -   555xxx or 5553xx
    F/A -  787xxx
    Am -   777xxx
    C/E -  232xxx
    
    Chords used: Standard EADGBe
    Dm -   xx0231
    Bb…
  • Intro: Dm   x8, <     Very fast plucking Dm Riff
    Dm  C/E  F  A/C#   x2, Dm  Dm  Dm  Dm  
    Dm   x4
    
    
    Verse 1:
    Dm      Bb      F
    Take my breath away 
            A/C#
    I don’t need 
          Dm          Bb
    it anyway cos…
  • Tuning:Db-Ab-Db-Gb-Bb-Eb
    
    intro:
    e|--------------------------------------------------------------------------|
    B|--------------------------------------------------------------------------|
    G|--------------------------------------------------------------------------|
    D|--2222----2222----2222----2222~-------------------------------------------|
    A|--2222----2222----2222----2222~-------------------------------------------|
    E|--2222----2222----2222----2222~--pick…
  • Tuning: Standard EADGBe
    
    Chords used:
    C#m -  x46654
    D -    xx0232
    A -    x02220
    Abm -  466444
    F#m -  244222
    E -    022100
    E/G# - 476xxx
    Bm -   x24432
    
    
    Intro: C#m--D--A--Abm--F#m--A--E--
    A-E/G#-A-E-- x4
    
    
    Verse…
  • Tuning: Standard EADGBe
    
    Chords used:
    Em - 022000
    D -  xx0232
    C -  x32010
    B -  x24442
    G -  320033
    F# - 244322
    C# - x46664
    
    
    Deryck:
             Em          G   F#  Em  B   
     G
    e|-0-2-3-5-3-2-0---|-3-|-2-|-0-|---|-0-|-2-|
    B|---------------3-|---|---|---|-4-|---|---|
    G|-----------------|---|---|---|---|---|---|
    D|-----------------|---|---|---|---|---|---|
    A|-----------------|---|---|---|---|---|---|
    E|-----------------|---|---|---|---|---|---|…
  • Intro:
    
    E|-------------------------------------|
    B|-------------------------------------|
    G|-0~----------------------------------|
    D|-0~--------------/-------------------|
    A|-0~--------------/-------------------|
    E|-0~--------------/-------------------|
    
    Verse:
    
    E|-------------------------------------|
    B|-------------------------------------|
    G|---------8>-----7>-------------------|…
  • Introduction
    ------------
    
    | Guitar 1                                |
    |-----|---------5-9-5-------------5-9-5---|
    |-(7)-|-7-5-7-9-------9---7-5-7-9-------9-|
    |-(6)-|-----------------------------------|
    |-----|-----------------------------------|
    |-----|-----------------------------------|
    |-----|-----------------------------------|
    
    |…
  • Tuning: Standard EADGBe
    
    Chords used:
    G -    320033
    B/D# - x698xx
    Em -   022000
    C -    x32010
    G/B -  x2x003
    F -    133211
    D/F# - 2x023x
    Bm -   x24432
    
    
    Intro: Acosutic Guitar Palm Mute
    Em--C-G-D/F#
    
    Em
    Take…
  • Intro (Guitar1):
    eb||---------------||
    Bb||---------------||
    Gb||---------------||
    Db||-9-------(9)\--||
    Ab||-7-------(7)\--||
    Eb||---------------||
    
    
    Chorus:
       Guitar1
    eb|-------------------|-----------------------|--------------------|--------------------------|
    Bb|-------------------|-----------------------|--------------------|--------------------------|
    Gb|-7-9-----7-9--12-9-|-7-9-----5-5-7-(7)-7-7-|-7-9-----7-9--12-9--|-7-9----------------------|
    Db|-7-9-----7-9--12-9-|-7-9-----5-5-7-(7)-7-7-|-7-9-----7-9--12-9--|-7-9------9--9-5-(5)-5--7-|
    Ab|-5-7-----5-7--10-7-|-5-7-----3-3-5-(5)-5-5-|-5-7-----5-7--10-7--|-5-7------9--9-5-(5)-5--7-|
    Eb|-------------------|-----------------------|--------------------|----------7--7-3-(3)-3--5-|…
  • Chords used:
    A -  x02220
    C# - x46664
    D -  xx0232
    G -  320033
    E -  022100
    B -  x24442
    Eb - x68886
    
    
    Intro: A--C#-D-C#-G--C#-D-D x6, A-- x2
    
    
    Verse 1:
    A                     G
      Was happiness a fad?
    A
      Or…
  • E5          C5            C/B5          E/Eb5
    E-------------------------------------------------------------------|
    B-------------------------------------------------------------------|
    G----9-9--xxxx--(9)(9)--xxxx--(8)(8)--xxxx---8-8--xxx---------------|
    D----9-9--xxxx---10-10--xxxx---9--9---xxxx---9-9--xxx---------------|
    A----7-7--xxxx---10-10--xxxx---10-10--xxxx---6-6--xxx---------------|
    E----------------8--8---xxxx---7--7---xxxx--------------------------|…
  • Intro:
    G|-------------------------------------------------------------------------------|
    D|-------------------------------------------------------------------------------|
    A|—--2-1-2-4-1-2-------------------------------2-1-2-4-1-2-2-1-2-4-1-2-----------|
    D|-----------------111111----111111---111111---------------------------1-1-1-1---|
    
    Verse:
    G|-------------------------------------------------------------------------------|
    D|-------------------------------------------------------------------------------|
    A|-------------------------------------------------------------------------------|
    D|—-----1-1-2-1-1-1-2-1-1-1-2-1-2-1-2--------1-1-2-1-1-1-2-1-1-1-2-1-2-1-2-------|
    
    G|-------------------------------------------------------------------------------|
    D|-------------------------------------------------------------------------------|
    A|----------------------------------------------------------2-1-2-4-1-2----------|
    D|---—-1-1-2-1-1-1-2-1-1-1-2-1-2-1-2-----1-1-2-1-1-1-2---1----------------6~-----|
    
    Chorus:
    G|-------------------------------------------------6-6-4-4-----------------------|
    D|----------------------------------------------------------4-4-4-4--------------|
    A|-------------4-4-4-4-----------6-6-4-4-----------------------------6-6-6-6-----|
    D|----6-6-6-6-----------4-4-4-4-----------6-6-6-6--------------------------------|
    
    G|-----------------------------------------------------------|
    D|-----------------------------------------------------------|
    A|-------------4-4-2-2-----------6~---2-1-2-4-1-2------------|
    D|---6-6-6-6------------4-4-4-4--------------------1-1-1-1---|
    
    Verse:
    G|-------------------------------------------------------------------------------|
    D|-------------------------------------------------------------------------------|
    A|-------------------------------------------------------------------------------|
    D|—-----1-1-2-1-1-1-2-1-1-1-2-1-2-1-2--------1-1-2-1-1-1-2-1-1-1-2-1-2-1-2-------|
    
    G|-------------------------------------------------------------------------------|
    D|-------------------------------------------------------------------------------|
    A|----------------------------------------------------------2-1-2-4-1-2----------|
    D|---—-1-1-2-1-1-1-2-1-1-1-2-1-2-1-2-----1-1-2-1-1-1-2---1----------------6~-----|
    
    
    Chorus:
    G|------------------------------------------------6-6-4-4------------------------|
    D|--------------------------------------------------------4-4-4-4----------------|
    A|------------4-4-4-4-----------6-6-4-4---------------------------6-6-6-6--------|
    D|—--6-6-6-6-----------4-4-4-4-----------6-6-6-6--------------------------6-6-6-6|
    
    G|-----------------------1-1-1-1-------------------------------------------------|
    D|-------------------------------2-2-2-2-----------------------------------------|
    A|4-4-2-2---------6-6-6-6----------------2-2-2-2----1-2----------------2-2-2-2---|
    D|--------4-4-4-4-------------------------------4-4----6-6-6-6-2-2-2-2---------4~|
    	
    Bridge:
    G|-------------------------------------------------------------------------------|
    D|------------------------------------2----------------------------------2-------|
    A|--------------------------------2-4--------------------------------2-4---------|
    D|—--111111-2-111111-2-111111-2-1-------111111-2-111111-2-111111-2-1-------111111|
    
    G|-------------------------------------------------------------------------------|
    D|-------------------------------------------------------------------44444444----|
    A|----------------------------------------2-----------1-----------2--------------|
    D|----111111--1111111----111111--111111------111111------111111------------------|
    
    Chorus:
    G|----------------------------------------------------------------1-1-1-1--------|
    D|------------------------------------------------4-4-4-4-----------------2-2-2-2|
    A|---------4-4-4-4---------6-6-4-4----------4-4-4---------6-4-6------------------|
    D|—6-6-6-6---------4-4-4-4---------6-6-6-6----------------------4----------------|
    
    G|---------------------------------------------------1-1-1-1---------------------|
    D|-----------------------------------------------------------2-2-2-2---------4-4-|
    A|--2-2-2-2-----1-2------------------2-2-2-2-------------------------2-2-2-2-----|
    D|----------4-4-----6-6-6--6-2-2-2-2---------4-4-4-4-----------------------------|
    
    G|3-4-------------------------------|--------------------------------------------|
    D|----------------------------4-4---|-------------------------------4------------|
    A|--------------------2-2-2-2-------|------4---------6---------4---------6-------|
    D|----6-6-6-6-2-2-2-2-------------6~|—6---------4-------8--6------------------6~-|…
  • Вступление:
                          Bm
    So what am I fighting for?
                         D
    Everything back and more,
                       A
    And I'm not gonna let this go,
                             F#
    I'm ready to settle…
  • Intro: C--G--Am--F--
    
    
    Verse 1:
    C       G
    Hold me now cause I 
    Am                 F
    couldn't even if I tried
         C    G
    It's over now
      Am                    F
    I guess it really is my time
      Am          G
    I…
  • Children of the beast embrace,
    To scorn and hate the human race,
    Consume the light that hugs the earth,
    And aid the womb in giving birth,
    To a group that will appear,
    And guide you through this final year,
    The dark…
  • Intro: 
     
    Cone: Bm--
    
    
    Tom: continue up to Verses
    e|------------------------------------|
    B|---------------12----------------14-|
    G|-11h13h14--11------11---14---11-----|
    D|------------------------------------| x4
    A|------------------------------------|
    D|------------------------------------|
    
    Deryck:…
  • Intro/Verse
    gtr. 1
    |-----------------------------|-------------------------|
    |-----------------------------|-------------------------|
    |-----------------------------|-4-4-4-4-4/--------------|
    |-6-6-6-4-6-6---2-2-2-2-2-2-2-|-4-4-4-4-4/----4-4-4-4-4-|…
  • tunning:half step (Eb Ab Db Gb Bb Eb) low to high
    
    Intro part 1
    riff 1   x4
    Eb|--7----7-----8----7-|------|
    Bb|--8----8-----8----8-|------|
    Gb|-9-9--9-9---9-9--9-9|------|
    Db|9----9----10----9---|------|
    Ab|--------------------|-2-2-2|x2
    Eb|--------------------|-0-0-0|
    pm…
  • Intro:
    
    Deryck: C#m--A--B--F#m x16
    
    Dave: Will enter at 3rd time up to 8th
         H.           Q       Q    H        Q       Q    H        Q     
    E||--------------------|--4----0-------------|-------0-------------|
    B||---------------2----|----------------2----|--L-------------2----|
    G||--------------------|---------------------|---------------------|
    D||--------------------|---------------------|---------------------|
    A||--------------------|---------------------|---------------------|
    E||--------------------|---------------------|---------------------|…
  • Em
    I don't believe I think
    I'm falling asleep
              C
    Is this beginning or ending
          B/D#
    am I stuck in a dream?
      Em            C
    I don't want to know
           G          B/D#
    what I think I suppose
    Em
    Out…
  • Tuning- Eb Ab Db Gb Bb eb
    
    Pain for Pleasure:
    Vocals- Steve
    Guitar 1- Dave
    Guitar 2- Deryk??
    Bass- Cone
    Drums- Deryk
    
    Intro- Starts off snare and flute thing then comes in with guitar 1:
    eb|------------------------------------------------------------|(pretty…
  • Intro Pt. 1 Bass Intro
    |-------------------------|
    |-------------------------|
    |-------------------------|
    |-------------------------|
    |-------------------------|
    |-1-1-1-4-4-3-1-1-1-4-4-3-|
    
    Pick scrape, Dave goes…
  • Verse 1: Piano
    Cm        G       Ab         Eb
      I'm not quite myself these days
             Gm         Ab
    Guess we all come undone
            Eb                Bb
    Time to time in different ways
        Cm  G      Ab      Eb
    Well…
  • Standard Tuning (E,A,D,G,B,E)
    
    Intro
    
    E |------------------|
    B |---------0-0------|
    G |------------------|
    D |-3-3-3-3-----4-4p-|
    A |-3-3-3-3-----4-4p-|
    E |-2-2-2-2-----2-2p-|
    
    Verse
    
    E |------------------------------------------------------------------|
    B…
  • Intro:
    Gb|------------------------------------------------------------------------------|
    Db|------------------------------------------------------------------------------|
    Ab|--------3----------2-5---------3----------2-5---------------3-----------------|
    Eb|------0---3--00----------000-00--3-00----------00------------3--00-00-00------|
    
    Gb|------------------------------------------------------------------------------|
    Db|------------------------------------------------------------------------------|
    Ab|--2-5--------3333---------------2222-5555---------3333-------------2222-5555--|
    Eb|------0000----------3333-0000--------------0000----------3333-0000------------|
    
    Verse:
    Gb|------------------------------------------------------------------------------|
    Db|------------------------------------------------------------------------------|
    Ab|--------------------------------3321---------------------------------3321-----|…
  • Intro:  A5/B5 B5 A5 B5 B5 A5 B5 B5 B5 A5 E5 B5        x4
    
    Verse 1:
            B                       D
            Going in alone, did my time and now I'm done
                  A    E
            It's so easy
                    B…
  • G     Em     Am     D     B     C     Cm    A
    e---3-----0------0------2-----2-----0-----3-----5---|
    B---3-----0------1------3-----4-----1-----4-----5---|
    G---4-----0------2------2-----4-----0-----5-----6---|
    D---5-----2------2------0-----4-----2-----5-----7---|
    A---5-----2------0------------2-----3-----3-----7---|
    E---3-----0-------------------------------------5---|
    
    G…
  • Intro 
    Guitar 1
    e|---------------------------------------------------------------------------
    B|---------------------------------------------------------------------------
    G|---------------------------------------------------------------------------
    D|---11----6/7------7/9-9-9-9------------------------------------------------
    A|----9----4/5---7--5/7-7-7-7------------------------------------------------
    E|---------------5-----------------------------------------------------------
    
    Guitar…
  • ------------------------------------------------9-----------------------------|
    --------------------------------9------10-------------10---9------------------|
    ------------11----9----11-----------------------------------------------------|…
  • Intro:
    1)-14--------------------14--------------------14----------------------------------------
    2)------14---15---14----------14---15---14----------14---15---14-----17---15---14---15---
    3)---------------------------------------------------------------------------------------
    4)---14---14---14---14-----14---14---14---14-----14---14---14---14-----14---14---14---14-
    
    Verse:…
  • Intro: Bm G D A
    
    Verse 1:
    Bm
    Do you think about me cause
    G                           D
    I don’t have any doubt you must
    A
    In this life
         Bm
    Even though you’re never there, I didn’t
    G                       D
    Feel…
Наверх