Аккорды Свидание - 08/12/1980

Добавлено: @romashka
Дата добавления: 09 Апреля 2019г.
Рейтинг:
0.0
Просмотров: 46
Транспонировать - +
Вступление/проигрыш (играется на протяжении всей песни):
          Am          Am/C        Asus2       Asus2/F Asus2
e||-------------|-------------|-------------|-------------|
B||-------1-----|-------1-----|-------0-----|-------------|
G||-----2---2---|-----2---2---|-----2---2---|-----2-----2-|
D||---2-------2-|---2-------2-|---2-------2-|---2-----2---|
A||-0-----------|-3-----------|-0-----------|-------------|
E||-------------|-------------|-------------|-1-----0-----|

          Am          Am/C         Asus2        Asus2
e||-------------|-------------|-------------|--------------|
B||-------1-----|-------1-----|-------0-----|--------------|
G||-----2---2---|-----2---2---|-----2---2---|--------------|
D||---2-------2-|---2-------2-|---2-------2-|--------------|
A||-0-----------|-3-----------|-0-----------|--------------|
E||-------------|-------------|-------------|-1------------|

 Am    Am/C     Asus2    Asus2/F Asus2
Пули не знали в кого их стреляли
 Am    Am/C     Asus2  Asus2/F Asus2
В полете кричали «прости»
 Am    Am/C     Asus2    Asus2/F Asus2
Если б мы знали в кого нас стреляли
Am     Am/C    Asus2    Asus2
Конечно б пытались спасти

 Am    Am/C     Asus2 Asus2/F Asus2
Нас выливают, мы убиваем
 Am    Am/C     Asus2    Asus2
Мы невиновны мы, просто металл

Проигрыш (смотрите как играется на видео)

 Am    Am/C     Asus2   Asus2/F Asus2
Если б мы знали в кого нас стреляли
 Am    Am/C     Asus2 Asus2/F Asus2
Осечку бы дал револьвер
 Am    Am/C     Asus2 Asus2/F Asus2
Нас выливают мы убиваем
 Am    Am/C     Asus2    Asus2
Мы невиновны мы просто металл...

Каподастр на 6 ладу
Перебор: Бас 4 3 2 3 4
Asus2/F - 1x2200
comments powered by Disqus
Наверх