Аккорды Свидание - Музыка глаз

Добавлено: @romashka
Дата добавления: 19 Декабря 2020г.
Рейтинг:
0.0
Просмотров: 15
Транспонировать - +
    Проигрыш 1 (таким образом аккорды играются на протяжении всей песни):
|----------------------------------------------------------------------------
|-----------3-----------------------------------3-----------------3----------
|--------2-----2--------------2--------------4-----4-----------4-----4-------
|-----4-----------4--------4-----4--------4-----------4-----4-----------4----
|--5--------------------4-----------4--2-----------------2-------------------
|--------------------2------------------------------------------------------- 
        D(II)                F#m                         Bm

|---------------------------------------------------------------------------- 
|-----------------------------------------------3-----------------3---------- 
|-----------4-----------------2--------------2-----2-----------2-----2------- 
|--------5-----5-----------2-----2--------4-----------4-----4-----------4---- 
|-----5-----------5-----4-----------4--5-----------------5------------------- 
|--3-----------------5------------------------------------------------------- 
          G(II)             A(II)                      D(II)

D(II) F#m  Bm
  Музыка  глаз
G(II) A(II) D(II)
 Только для нас.
     Bm A(II) F#m
Этот медленный вальс,
    G(II) A(II) D(II)
Эта музыка глаз,
     Bm A(II) F#m
Этот тихий рассказ
G(II) A(II) D(II)
  Только для нас.

Проигрыш 2 (начинается со слова "нас"): 
D(II) F#m Bm G(II) Bm F#m G(II) F#m G(II) A(II) D(II)  

D(II) F#m Bm
  Музыка глаз
G(II) A(II) D(II)
  Только для нас.
     Bm A(II) F#m
Этот медленный вальс,
    G(II) A(II) D(II)
Эта музыка глаз,
     Bm A(II) F#m 
Этот тихий рассказ,
G(II) A(II) D(II)
   Музыка глаз.

Проигрыш 2 (со слова "глаз").

Для удобства нужно поставить каподастр на 2-ой лад.
Наверх