Аккорды Свидетельство о смерти - Привет

Добавлено: @romashka
Дата добавления: 14 Августа 2022г.
Рейтинг:
0.0
Просмотров: 34
Транспонировать - +
[Вступление]:
e -0-0---------0-0-------------------7--6-2-----------------------
B -----3-3-2-3-----3-3-2-3--3-5-7-----------5-3-------------------
G --------------------------------4-------------------------------
D ----------------------------------------------------------------
A ----------------------------------------------------------------
E ----------------------------------------------------------------

e -0-0---------0-0-------------------7--6-------------------------
B -----3-3-2-3-----3-3-2-3--3-5-7-8--------------------------------
G ----------------------------------------------------------------
D ----------------------------------------------------------------
A ----------------------------------------------------------------
E ----------------------------------------------------------------

1 Куплет (без перебора):

Привет всем не проснувшимся, оставшимся во сне
Глядевшим накануне сквозь стеклянные глаза!
Тем, кто любил ходить смотреть на звёзды по весне
Тем, кто любил ласкать и гладить нежно волоса

[Припев]:
Отсюда, на тот свет, в кирзовых сапогах, я не хотел…
e -0-0---------0-0------------------------------------------------
B -----3-3-2-3-----3-3-2-3--3-5-7---------------------------------
G --------------------------------4---4-6-7-6--6-7-9-12-11--------
D ----------------------------------------------------------------
A ----------------------------------------------------------------
E ----------------------------------------------------------------

Ты не жалей меня, мозоли на ногах – я не успел…
e -0-0---------0-0------------------------------------------------
B -----3-3-2-3-----3-3-2-3--3-5-7----8-7-5--3--2------------------
G --------------------------------4-------------------------------
D ----------------------------------------------------------------
A ----------------------------------------------------------------
E ---------------------------------------------------------------- 
Наверх