Аккорды The Beatles - And I Love Her

Добавлено: @romashka
Дата добавления: 24 Марта 2013г.
Рейтинг:
0.0
Просмотров: 881
Транспонировать - +
Tab1 (1,2,4,5 куплеты):
E|-------------------------------------------------------------|
B|--------3-1-4---------3--1-------3-1-4-4-1-------------------|
G|---0-1------------0-1--------0-1------------6-5-3----------0-|
D|-3-------------3-----------3---------------------------------|
A|---------------------------------------------------1--1--3---|
E|-------------------------------------------------------------|

Tab2 (3 куплет):
E|-------------------------------------------------------------|
B|-------------3-------------3---------------------------------|
G|-0-0-0-3---------3-0-3--------3-0-3-----0-3-0----------------|
D|-----------------------------------------------3-------------|
A|-------------------------------------------------------------|
E|-------------------------------------------------------------|

Проиграйте эту партию баса в начале и в конце песни.
А дальше -  как хотите
По крайней мере, так начинают Битлз играть эту песню...

G|------------------------------------|
D|-------1--0-------------1--0--------|
A|--1------------3----1------------3--|
E|------------------------------------|

Вступление (2 раза):
Акк:  Fm               Eb (или Cm7 - оба варианта подходят)
      Бас- партия      Бас-партия

Fm         Cm
I give her all my love
  Fm          Cm
That?s all I do
Fm          Cm
And if you saw my love
 Ab             B
You?d love her too
   Eb
I love her

She gives me ev?rything
And tenderly
The kiss my lover brings
She brings to me
And I love her

Gm          B
A love like ours
Cm7         Gm
Could never die
Gm         Cm
As long as I
          B
Have you near me

(Спеть 2 раза последний куплет. Между двумя запевками вставить
  Таб.1 без голоса)
Bright are the stars that shine
Dark is the sky
I know this love of mine
Will never die
And I love her

Окончание:
Акк:  Fm               Eb (или Cm7 - оба варианта подходят)
      Бас- партия      Бас-партия
      Fm               С (Теперь уже только этот)
      Бас- партия      Бас-партия
comments powered by Disqus
Наверх