Аккорды The Beatles - Longer

Добавлено: @romashka
Дата добавления: 24 Марта 2013г.
Рейтинг:
0.0
Просмотров: 196
Транспонировать - +
  Intro
D|-----------0-----------0|-----------0-----------0|
B|--------------1---------|--3-----------5---------|
G|--------0-----------0---|--------0--------0--0---|
D|-----0-----------2------|-----4------------------|
G|--0-----------2---------|--4-----------5---------|
D|------------------------|------------------------|

D|-----------0-----------0-|-----------5------------|
B|--0-----------1----------|--3--5--7-----------5---|
G|--------0-----------0----|-----------------5-----5|
D|-----0-----------2-------|--------------5---------|
G|--0-----------2----------|--4--------5------------|
D|-------------------------|------------------------|

D|-----------0-----------0|--------------------0----|
B|--0-----------1---------|--3--5--3-----5----------|
G|--------0-----------0---|-----------0-----0-----0-|
D|-----0-----------2------|-------------------------|
G|--0-----------2---------|--4-----------5----------|
D|------------------------|-------------------------|

D|--0-----------------------|-------------------------|
B|-----1-----1--------------|-----------0--1-----3----|
G|--------3-----------0H2--0|--------0--------0-----0-|
D|-----------------0--------|-----0--------2-----4----|
G|--3-----------2-----------|--0----------------------|
D|--------------------------|-------------------------|

    Verse X3
D|--0--------0-----------0|-----------0-----------0-|
B|--------------1---------|--3-----------5----------|
G|--------0-----------0---|--------0--------0--0----|
D|-----0-----------2------|-----4-------------------|
G|--0-----------2---------|--4-----------5----------|
D|------------------------|-------------------------|
          Longer than...

D|--0-----------------------|-------------------------|
B|-----1-----1--------------|-----------0--1-----3----|
G|--------3-----------0H2--0|--------0--------0-----0-|
D|-----------------0--------|-----0--------2-----4----|
G|--3-----------2-----------|--0----------------------|
D|--------------------------|-------------------------|
    I`ve been...

    2nd time
D|--0-----------------------|--------------5-----5----|
B|-----1-----1--------------|-----------0-------------|
G|--------3-----------0H2--0|--------0--------0-----0-|
D|-----------------0--------|-----0-------------------|
G|--3-----------2-----------|--0----------------------|
D|--------------------------|-------------------------|
    I`ve been...

    Chorus x3
D|-----------5------------|-----------3------------|
B|------------------------|------------------------|
G|--------5-----------5--7|--------3--------3------|
D|-----7-----------5------|-----5--------------3---|
G|--5-----------5---------|--3-----------3--------3|
D|------------------------|------------------------|
I`ll        bring        fire in the winters

D|--------0-----------0---|
B|------------------------|
G|-----5-----5-----5-----5|
D|--5-----------4---------|
G|------------------------|
D|------------------------|
 With lo-------ve on our
                            x3
D|--------0-----------0--|-----------0-----------0|
B|-----------------------|--0-----------1---------|
G|-----5-----5-----5----5|--------0-----------0---|
D|--3-----------4--------|-----0-----------2------|
G|-----------------------|--0-----------2---------|
D|-----------------------|------------------------|
    wings                      Through the years...

D|-----------0-----------0-|
B|--3-----------5----------|
G|--------0--------0--0----|
D|-----4-------------------|
G|--4-----------5----------|
D|-------------------------|

D|--0-----------------------|--------------0----------|
B|-----1-----1--------------|-----------0-------------|
G|--------3-----------0H2--0|--------0--------0-------|
D|-----------------0--------|-----0-----------------0-|
G|--3-----------2-----------|--0-----------------2----|
D|--------------------------|-------------------------|
    I`ll be...

D|--0-----------------------|--------------5-----5----|
B|-----1-----1--------------|-----------0-------------|
G|--------3-----------0H2--0|--------0--------0-----0-|
D|-----------------0--------|-----0-------------------|
G|--3-----------2-----------|--0----------------------|
D|--------------------------|-------------------------|
    I am...

    End
D|--0-----------------------|-------------5-|
B|-----1-----1--------------|---------------|
G|--------3-----------0H2--0|--------2/4----|
D|-----------------0--------|-----0---------|
G|--3-----------2-----------|--0------------|
D|--------------------------|---------------|
comments powered by Disqus
Наверх