Аккорды The Beatles - Hard Days Night

Добавлено: @vitos
Дата добавления: 04 Сентября 2015г.
Рейтинг:
0.0
Просмотров: 148
Транспонировать - +
This is George's part:

 E ------------------------------|
 B ------------------------------|
 G ------------------------------|
 D --------------3---3---3-------|
 A -------3-5-3h5-3h5-3h5-3------|
 E -3-3-6--6-----------------6-3-|

Here's John's part:                 Both parts are
                                   played at the same
 E ---------------------------------|     time, to give the
 B -------------6---6---6-----------|     harmony effect.
 G ------5-7-5h7-5h7-5h7-5----------|
 D -5-5-8-8----------------8-5------|
 A ---------------------------------|
 E ---------------------------------|
comments powered by Disqus
Наверх