Аккорды The Beatles - I'll Follow The Sun

Добавлено: @vitos
Дата добавления: 10 Сентября 2015г.
Рейтинг:
0.0
Просмотров: 231
Транспонировать - +
Intro:
   C       G       F       C
e|---0-------3-------1-------0-----|
B|-------1-------0-------1-------1-|
G|-------------0---2-----------0---|
D|-----2---0-----------3---2-------|
A|-3-------------------------------|
E|---------------------------------|

Verse 1:    
   G        F7          C            D7
   One day, you'll look, to see I've gone

       C            Em      D7      G7        C       G       F       C
e|-------0------------0-------1-------1---------0-------1-------1-------0-----|
B|-----------1------------0-------1-------0---------1-------0-------1-------1-|
G|---------0------------0-------2-------0-----------------0-------------------|
D|--------------------------0---------------------2---0-----------3-------2---|
A|-----3------------2---------------2---------3---------------3-------3-------|
E|----------------------------------------------------------------------------|    
   For tomorrow may rain, so,  I'll follow the sun

Verse 2:
   G         F7          C          D7
   Some day, you'll know, I was the one

         C          Em      D7      G7        C       C7
e|-------0------------0-------1-------1---------0-------0-------0-------0-----|
B|-----------1------------0-------1-------0-----------------------------------|
G|---------0------------0-------2-------0-----------0-------3-------3---------|
D|--------------------------0---------------------2-------2-------2-------2---|
A|-----3------------2---------------2---------3-------3-------3-------3-------|
E|----------------------------------------------------------------------------|
   But tomorrow may rain, so,  I'll follow the sun

Chorus:
               F                  Fm                C   C7
   And now the time has come, and so my love I must go
                F              Fm                  C
   And though I lose a friend, in the end you will know,
   F
   Oh....oh.....


Verse 3:
   G        F7           C           D7
   One day, you'll find, that I have gone
       C            Em      D7      G7        C       G       F       C
e|-------0------------0-------1-------1---------0-------1-------1-------0-----|
B|-----------1------------0-------1-------0---------1-------0-------1-------1-|
G|---------0------------0-------2-------0-----------------0-------------------|
D|--------------------------0---------------------2---0-----------3-------2---|
A|-----3------------2---------------2---------3---------------3-------3-------|
E|----------------------------------------------------------------------------|
   But tomorrow may rain, so,  I'll follow the sun

 
Solo:
   G       F7       C    D7 
e|------------------3/8--7/10------|
B|-3///8---4///10------------------|
G|---------------------------------|
D|---------------------------------|
A|---------------------------------|
E|---------------------------------|


repeat end verse 3:
         C          Em      D7      G7        C       C7
e|-------0------------0-------1-------1---------0-------0-------0-------0-----|
B|-----------1------------0-------1-------0-----------------------------------|
G|---------0------------0-------2-------0-----------0-------3-------3---------|
D|--------------------------0---------------------2-------2-------2-------2---|
A|-----3------------2---------------2---------3-------3-------3-------3-------|
E|----------------------------------------------------------------------------|
   Yes tomorrow may rain, so,  I'll follow the sun

Chorus:
               F                  Fm                C   C7
   And now the time has come, and so my love I must go
                F              Fm                  C
   And though I lose a friend, in the end you will know,
   F
   Oh....oh.....


Repeat verse 3:
   G        F7           C           D7
   One day, you'll find, that I have gone
       C            Em      D7      G7        C       G       F       C (strum)
e|-------0------------0-------1-------1---------0-------1-------1-----0-------|
B|-----------1------------0-------1-------0---------1-------0-------1-1-------|
G|---------0------------0-------2-------0-----------------0-------------------|
D|--------------------------0---------------------2---0-----------3---2-------|
A|-----3------------2---------------2---------3---------------3-------3-------|
E|----------------------------------------------------------------------------|
   But tomorrow may rain, so,  I'll follow the sun
comments powered by Disqus
Наверх