Аккорды The Beatles - Please Mr. Postman

Добавлено: @vitos
Дата добавления: 22 Сентября 2015г.
Рейтинг:
0.0
Просмотров: 112
Транспонировать - +
Intro:
G|--2--------------------------------------------------------------|
D|----------------------------------------4------------------------|
A|-----------------------------------------------------------------|
E|-----------------------------------------------------------------|

Verse 1:

G|--5-4-3-2--2-2--2--------2-2--2----------------------------------|
D|------------------2-2--2--------2-2--2-4-4--4--------4-4--4------|
A|----------------------------------------------4-4--4--------4-4--|
E|-----------------------------------------------------------------|

G|---------------------------------------------------------1-2-------|
D|--------------------------------2-2--2--------2-2--2-2-4-----------|
A|--4-5-5--5-0-0--0-5-5--5-0-0--5--------2-2--2----------------------|
E|-------------------------------------------------------------------|

Verse 2:
G|---2-2--2--------2-2--2------------------------------------------|
D|----------2-2--2--------2-2--2-4-4--4--------4-4--4--------------|
A|--------------------------------------4-4--4--------4-4----4-5-5-|
E|-----------------------------------------------------------------|

G|--------------------------------------------------1-2------------|
D|-------------------------2-2--2--------2-2--2-2-4----------------|
A|--5-0-0--0-5-5--5-0-0--5--------2-2--2---------------------------|
E|-----------------------------------------------------------------|

Repeat the second verse for the rest of the song.
comments powered by Disqus
Наверх