Аккорды The Brian Jonestown Massacre - Free

Добавлено: @romashka
Дата добавления: 18 Сентября 2018г.
Рейтинг:
0.0
Просмотров: 34
Транспонировать - +
Intro   
Em         A             D              G
e--------0-0-2-3-5-5--5-9-7-9-10-10-10-10-9-7-3-|
B-----------------------------------------------|
G-----------------------------------------------|
D-----------------------------------------------|
A-----------------------------------------------|
E-3-2-0-----------------------------------------|

Em         A              D
e-3-2-0-0-0-0h2-0-----0-----0-----------------|
B-----------------3-3-----3---2-3-3-3-3-3-3-3-|
G---------------------------------------------|
D---------------------------------------------|
A---------------------------------------------|
E---------------------------------------------|

Verse   
       Em             A    
When I looked in and I see 
               D             G
that you're so beautiful and free
            Em           A   
The look of love in your eyes 
               D               G
it's like the sweetest summer skies
      Em           A          
In my heart and my mind I know 
      D             G
that everything is fine
       Em        A                      D
When I look and I see you're lookin' at me

Em A D G }x2

Verse   
        Em         A 
I´m as glad as can be 
             D                 G
because you gave your soul to me
         Em               A   
And what more I win your love 
     D               G
so I thank the stars above
          Em            A     
And we'll see sparkling bright 
             D              G
it's like a furious summer sky
        Em        A                     D
When I look and I see you're lookin' at me

Em A D G }x2

Verse   
       Em           A  
When I looked and I see 
                D             G
that you're so beautiful and free
            Em             A   
The look of love in you're eyes 
           D               G
is like a sweet hello goodbye
      Em             A 
In my heart and my mind 
              D            G
I feel that every single time
       Em         A                     D
When I look and I see you're lookin' at me
A                       D
Yeah, you're lookin' so free
A                       D
Yeah, you're lookin' so free
comments powered by Disqus
Наверх