Аккорды The Hardkiss - Косатка

Добавлено: @romashka
Дата добавления: 19 Марта 2020г.
Рейтинг:
0.0
Просмотров: 219
Транспонировать - +
Куплет:
1|---------------------------------|----------------------------------
2|---------------------------------|-----0-----0---------0-----0------
3|-----0-----0---------0-----0-----|----------------------------------
4|---4-----4-----4---4-----4-----0-|---2-----2-----2---2-----2-----2--
5|-3-----3-----3---3-----3-----3---|-0-----0-----0---0-----0-----0----
6|---------------------------------|----------------------------------

Приспів:
1|-----------------|-----------------|-----------------|------------------
2|-----------------|-----------------|-----------------|------------------
3|-----0-----0-----|-----------------|-----0-----0-----|-----0-----0------
4|---9-----9-----9-|-----0-----0-----|---7-----7-----7-|---9-----9-----9--
5|-----------------|---9-----9-----9-|-5-----5-----5---|------------------
6|-0-----0-----0---|-7-----7-----7---|-----------------|-8-----8-----8----

1|-----------------|-----------------|-----------------|------------------
2|-----------------|-----------------|-----------------|------------------
3|-----0-----0-----|-----------------|-----0-----0-----|------------------
4|---9-----9-----9-|-----0-----0-----|---7-----7-----7-|-----0-----0------
5|-----------------|---9-----9-----9-|-5-----5-----5---|---7-----7-----7--
6|-0-----0-----0---|-7-----7-----7---|-----------------|-5-----5-----5----

1|-----------------|-----------------|-----------------|------------------
2|-----------------|-----------------|-----------------|------------------
3|-----0-----0-----|-----------------|-----0-----0-----|-----0-----0------
4|---9-----9-----9-|-----0-----0-----|---7-----7-----7-|---9-----9-----9--
5|-----------------|---9-----9-----9-|-5-----5-----5---|------------------
6|-0-----0-----0---|-7-----7-----7---|-----------------|-8-----8-----8----

1|-----------------|-----------------|-----------------|------------------
2|-----------------|-----------------|-----------------|------------------
3|-----0-----0-----|-----------------|-----0-----0-----|------------------
4|---9-----9-----9-|-----0-----0-----|---7-----7-----7-|-----0-----0------
5|-----------------|---9-----9-----9-|-5-----5-----5---|---7-----7-----7--
6|-0-----0-----0---|-7-----7-----7---|-----------------|-7-----7-----7----

C
Плавати косаткою,
Asus2
Заплющивши очі
C                  Asus2
Торкатися п'яткою дна
C
І злітати вверх,
Asus2             C
Падати у хвилі одна...

Приспів:
Em
Велика і сумна,
Hm                 D
Вона співає про поля
         C      Em
За небокраєм, яких,
    Hm      D         Asus2
На жаль, ніколи не пізнає...
        Em       Hm
Про міста під дощами,
        D       C
Про космічнії храми,
       Em        Hm
Про людей із палкими
     D      Asus2
І живими серцями...

Гратися між пастками,
Вмиватись льодами
Сміливо торкатись човна,
Пальці на плавці
Змінює сьогодні одна...

Приспів.
Наверх