Аккорды The Hatters (Шляпники) - Пей, себя не жалей

Добавлено: @romashka
Дата добавления: 25 Февраля 2018г.
Рейтинг:
0.0
Просмотров: 416
Транспонировать - +
Вступление (оригинальное): x2
1|-8----8-12-8-------8----8-12-8-----------------15-13-12-10-7-----------7-|
2|---10-------10-9-----10--------10-9---6---6-10---------------9-8-7-8-9---|
3|----------------------------------------7--------------------------------|
4|-------------------------------------------------------------------------|
5|-------------------------------------------------------------------------|
6|-------------------------------------------------------------------------|

Вступление (упрощенное): Am | E Am | E F | E }x2

 Am                  E
Много слов не надо, доставай снаряды
Am              E
Пили, на грудь удар за ударом
Am             E
Посидим, помолчим. 
F                         Е
Там что-то затянулся перерыв между первым и вторым

Припев:
Am              E
Пей, себя не жалей!
Dm             E7
Пей, себя не жалей!
Am              E
Пей, себя не жалей!
Dm             E7
Пей, себя не жалей!

Проигрыш:
1|-8----8-12-8-------8----8-12-8-----------------15-13-12-10-7-----------7-|
2|---10-------10-9-----10--------10-9---6---6-10---------------9-8-7-8-9---|
3|----------------------------------------7--------------------------------|
4|-------------------------------------------------------------------------|
5|-------------------------------------------------------------------------|
6|-------------------------------------------------------------------------|

Am                    E
Что-то все не гладко на душе все время
F
Гадко белая полоса оказалась,
E
Оказалась между черной складкой -
Am               E F        E
Вот непруха, ё-моё, наливай еще!

Припев:
Am              E
Пей, себя не жалей!
Dm             E7
Пей, себя не жалей!
Am              E
Пей, себя не жалей!
Dm             E7
Пей, себя не жалей!

Окончание: Am | E Am | E F | E       

В оригинале вступление играется 3 раза, но длинный проигрыш без других 
инструментов можно и сократить, чтобы не перезагружать вступление.
Наверх