Аккорды The Hollies - We're Through

Добавлено: @romashka
Дата добавления: 05 Октября 2019г.
Рейтинг:
0.0
Просмотров: 23
Транспонировать - +
Intro:
e|-----------------------------|
B|-----------------------------|
G|----7-6-5--------------------|
D|----------7-6-5--------------| x3
A|----------------8-7-6-5-4----|
D|--0-----------------------7--|

e|-----------------------------|
B|-----------------------------|
G|----7-6-5--------------------|
D|----------7-6-5--------------| x1
A|----------------8-7-x-5-4----|
D|--0-----------------------7--|

Verse 1:
Dm                             F
I should be better off without you oo oo oo oo oo oo
Dm                            A
You take a pride in making me blue oo oo oo oo oo oo
G
I'm telling you my friend
Bb
It's got to be the end
      Dm                        A
We're through oo oo oo oo oo oo oo oo oo oo oo

Verse 2:
Dm                       F
I told you time and time agai aa aa aa aa aa ahn
Dm                        A
You told me he was just a frie eh eh eh eh ee eh ehnd
G
But I found out some way
Bb
I've seen him every day
     Dm                    A
With you oo oo oo oo oo oo oo oo oo oo oo

Chorus:
Bb
'Cause you never treat me tenderly
    C
You got no reason for leaving me
      Dm                             F            A
'Cause I ah ah ah ah can't leave you alo oh oh oh woah oh ooh
Bb
'Cause I knew from the start
C
 You'd be tearing me apart
          Dm                    A
Sooner or la ah ah ah ah ahahah ter

Instrumental:
e|-----------------------------|
B|-----------------------------|
G|----7-6-5--------------------|
D|----------7-6-5--------------| x3
A|----------------8-7-6-5-4----|
D|--0-----------------------7--|

e|-----------------------------|
B|-----------------------------|
G|----7-6-5--------------------|
D|----------7-6-5--------------| x1
A|----------------8-7-x-5-4----|
D|--0-----------------------7--|

Chorus:
Bb
'Cause you never treat me tenderly
    C
You got no reason for leaving me
      Dm                             F            A
'Cause I ah ah ah ah can't leave you alo oh oh oh woah oh ooh
Bb
'Cause I knew from the start
C
 You'd be tearing me apart
          Dm                    A
Sooner or la ah ah ah ah ahahah ter

Verse 3:
Dm                         F
And now my crying days are throu oo oo oo oo oo ough
Dm                        A
No longer shed a tear for you oo oo oo
G
I'm telling you my friend
Bb
It's got to be the end
      Dm                      A
We're throu oo oo oo oo oo oo oo oo oo oough

Outro:
      Dm                      A
We're throu oo oo oo oo oo oo oo oo oo oough
      Dm
We're throoough
comments powered by Disqus
Наверх