Аккорды The Limba - Обездвижен

Добавлено: @romashka
Дата добавления: 28 Июля 2021г.
Рейтинг:
0.0
Просмотров: 109
Транспонировать - +
Риф вступление

|-3/5-3--1----------|
|----------3--1/3---|
|-------------------|
|-------------------|
|-------------------|
|-------------------|

Основной перебор

Dm                   Am
|-------------------|-------------------|
|---------6---------|-------5-----------|
|---------7---------|-------5-----------|
|-------7-----------|-------------------|
|--4/5--------------|-----7-------------|
|-------------------|--5----------------|

Dm                   Am
|-------------------|-------------------|
|---------6---------|-------5-----------|
|---------7---------|-------5-----------|
|-------7-----------|-------------------|
|----5--------------|-----7-------------|
|-------------------|--5------------5-4-|

Gm                   Gm
|-------------------|-------------------| 
|---------3---------|---------3---------|
|---------3---------|---------3---------|
|-------------------|-------------------|
|-------5-----------|-------5-----------|
|----3--------------|----3----------3-4-|

Am                   Am
|-------------------|-------------------|
|-------5-----------|-------5-----------|
|-------5-----------|-------5-----------|
|-------------------|-------------------|
|-----7-------------|-----7-------------|
|--5----------------|--5----------------|

Вступление 
Dm Am Gm Am

Куплет 1
Dm         Am
Как давно, за горизонт
Dm          
Скрылась ты, и я в одного
Am
На сломанный борт, и прямо на дно
Gm         Gm
Своих мыслей, слишком низко
Am         Am
Так глубоко, все, чтобы быть с ней

Припев
Dm
Снова таю в твоих руках (У-у)
Am               Dm       Am
Хочу узнать тебя ближе (У-у-у)
            Gm
Нет, нам не стыдно
Gm                          Am
Я слышу, как жадно ты дышишь со мной
Dm
Снова таешь в моих руках (У-у)
Am               Dm      Am
Вот почему я обездвижен (У-у-у)
Gm           Gm                          Am
Я не увижу и близко себя где-то рядом с другой

Куплет 2

Baby и я
Весь мир кину к твоим ногам
Ты же знаешь, я тебе не соврал (Е-е)
В поцелуях холодный ментол (У-у)
Все будет, как раньше (А на)
В оранжевом закате (For real)
With you (У-у, а-а)
Сегодня, я только с тобой

Припев

Снова таю в твоих руках (У-у)
Хочу узнать тебя ближе (У-у-у)
Нет, нам не стыдно
Я слышу, как жадно ты дышишь со мной
Снова таешь в моих руках (У-у)
Вот почему я обездвижен (У-у-у)
Я не увижу и близко себя где-то рядом с другой
Наверх