Аккорды «The Living End»

The Living End
Австралийская панкобилли-группа была сформирована в 1995 году, начиная с исполнения каверов рокабильных банд 50-х годов, таких как Элвис Пресли, Джонни Бёрнетт, Бадди Холли, а также популярной группы 80-х — «Stray Cats». В составе группы были Крис Чини (Chris Chеney) - гитара и вокал, Джо Пирипитзи(Joe Piripitzi) - ударные и Скот Оуен (Scott Owen) на контрабассе и бек-вокале. По названию одной из песен этого коллектива они и ознаменовали себя — Runaway Boys. Но вскоре Крис решил поднять группу… Читать полностью... Австралийская панкобилли-группа была сформирована в 1995 году, начиная с исполнения каверов рокабильных банд 50-х годов, таких как Элвис Пресли, Джонни Бёрнетт, Бадди Холли, а также популярной группы 80-х — «Stray Cats». В составе группы были Крис Чини (Chris Chеney) - гитара и вокал, Джо Пирипитзи(Joe Piripitzi) - ударные и Скот Оуен (Scott Owen) на контрабассе и бек-вокале. По названию одной из песен этого коллектива они и ознаменовали себя — Runaway Boys. Но вскоре Крис решил поднять группу на новый уровень и начинает работу над EP диском "Helbound", включившем в себя 8 композиций, попутно меняя название группы на "The Living End". В 1996 вместо Джо Пирипитзи (Joe Piripitzi) в группе появляется новый ударник - Тревис Демси (Trevis Demsey). Успех пришёл к ним со вторым ЕР "It`s for your own good", композиция под названием "From here on in" стала все чаще звучать на местных радиостанциях. В 1998 году The Living End выпускают альбом «The Living End». Его успех был предугадан вышедшим немногим ранее ЕР «Second Solution», включившим в себя настоящие хиты, захватившие многие радиостанции. Этот ЕР стал несколько раз платиновым и побил рекорд продаваемости в Австралии за 1997 год. Итак, после такого успеха группе ничего не оставалось, кроме как пуститься в тур. Начали они с родной Австралии, где их подтолкнули уже имевшие уважение и авторитетпоп-панки «Green Day». вслед за Австралией последовал Warped Tour по просторам Америки, где новоиспечённая группа нашла ещё немало фанатов. Спустя около двух лет напряжённой жизни в дороге (естественно, на идеальные условия начинающим было рассчитывать нечего), The Living End вернулись в родные пенаты и начали работу над следующим альбомом, хотя опасения не сотворить такого же хита преследовали их вплоть до релиза, который оправдал все ожидания. И снова бесконечные туры и поиски новых идей одновременно. Не успел отшуметь успех «Roll On» (ребята даже не сняли клип на последний сингл), как случилось непредвиденное, но судьбоносное событие — Крис Чини попал в тяжелейшую автокатастрофу. Событие шокировало всех. Они с его второй половиной Эммой ехали по Great Ocean Road (штат Виктория, Австралия), когда какой-то лихач не справился с управлением, и чтобы избежать столкновения, Крис свернул с шоссе. Машина Чини покатилась под откос, внизу ей помогло остановиться дерево. Пару доставили в больницу, где Криса ещё достаточно продержали из-за его многочисленных травм и крайне сложного перелома ноги, потребовавшего хирургического вмешательства и вставления штифтов. В течение следующего полугода Крис был буквально не при делах, даже держать гитару на коленях стало для него невыносимым. Вследствии депрессии по поводу своей нетрудоспособности и творческого кризиса, Чини на некоторое время впал в запой, из которого его вывела вера в свой талант. Он начал писать песни, хотя для него этот процесс всегда начинался и начинается с поиска мелодии и риффов на гитаре. Когда состояние Криса улучшилось, и он смог вернуться к инструменту, начался буквально химический процесс сопоставления написанных им слов и когда-то сочинённых мелодий. Надо сказать, что пока фронтмен группы восстанавливался от аварии, команду из трёх человек покинул барабанщик Трэвис Дэмси (Travis Demsey), что потребовало от Криса и Скотта поисков замены ему. К счастью, это длилось недолго, и довольно скоро им на кастинг попался Энди Стрэккен (Andy Stachan), разделявший взгляд «основного состава» на творчество. В 2003 году выходит очередной изиплей группы "One Said To The Other". Ребята отправляются в Los Angeles где с ними начинает работать Mark Trombino - известный по своей работе с Blink 182 и Jimmy Eat World. И вот в результате этой работы в 2003 году они записали вполне удавшийся альбом «Modern Artillery». И, несмотря на некоторое недовольство по поводу микширования альбома, Крис Чини остался горд своей «первой работой» в новой жизни, отсчёт которой он решил начать после буквально чудесного спасения от смерти в автокатастрофе. В начале 2006 года The Living End выпустили свой четвёртый студийный альбом, названный «State Of Emergency» («Чрезвычайное положение»), успех которого подтолкнул звукозаписывающий американский лейбл «Аделин» даже причислить ТЛЕ к числу своих артистов. Переизданный альбом появился в США к середине июля, в момент разгара участия группы в уже привычном Warped Tour. К январю 2007 года TLE временно оставили выступления, углубившись в поиск идей для нового альбома. В феврале они записали песню рокабильной австралийской группы Cold Chisel "Rising Sun" в готовящийся трбьют-альбом "Standing On The Outside - The Songs Of Cold Chisel". 19 июля 2008 года вышел новый альбом трио "White Noise". Скрыть...
Популярные аккорды The Living End:
алфавиту | просмотрам | случайно
  • Intro:  
    
      C#m                        
    e---------------------------------------------------|
    b---------5-----------------5-----------------5-----|
    g-----6-------6---------6-------6---------6-------6-|
    d---6---6---6---------6---6---6---------6---6---6---|
    a-4-------------------------------------------------|
    e----------------4-5---------------5-4--------------|…
  • Intro:
    -------4-----5-----6------------
    -------4-----5-----6------------
    -9-----5-----6-----7-----2-0-2/-
    -0-----6-----7-----8-----2-0-2/-
    -7-----6-----7-----8-----0-0-0--
    -0-0-0-4-0-0-5-0-0-6-0-0--------…
  • g-----------------*--------  g-------------------------
    d-----------------*--------  d-------------------------
    a-----------------*--------  a-------------------------(x3)
    e-0-5-0-5-0-5-0-5-*-5-0-3~-  e-0-3-6-5-3-5-6-5-3-5-0-3-
    
    g-------------…
  • Intro:
    
      Am             G   D        D#   C
    e-------3-0---------------------------|
    b-1-1-1----1--1-----------------------|
    g-2-2-2-----2-2-----7-7-7^-7--8----5--|(x2)
    d-2-2-2-------2--5--7-7-7^-7--8----5--|
    a-0-0-0-------0--5--5-5-------6----3--|
    e----------------3--------------------|
    
    
    Verse:…
  • standard tuning 
    intro: G - C | G - C | G - C | Bb - F - D# - C| 
                               __________________/ 
                                        / 
                                  played quickly 
    verse: C (strum really…
  • e-------:---------:----------:----------:|
    b-------:---------:----------:----------:|
    g---7p6-:----10p9-:----13p12-:----16p15-:|
    d-9-----:-12------:-15-------:-18-------:|
    a-------:---------:----------:----------:|
    e-------:---------:----------:----------:|
    
    
    e-----------------:|
    b-----------------:|
    g-------------12~-:|
    d-12-14-15-12-----:|
    a-----------------:|
    e-----------------:|
    
    
    e---------------------------------8-7----:|
    b------------------------------10-----9~-:|
    g------------------10p9-9-10-------------:|
    d----------10s9-12-----------------------:|
    a-------12-------------------------------:|
    e-10-13----------------------------------:|
    
    e---------------------------------8-7--:|
    b------------------------------10------:|
    g------------------10p9---9-10---------:|
    d----------10s9-12---------------------:|
    a-------12-----------------------------:|
    e-10-13--------------------------------:
    
    e-------------------------------------:|
    b-------------------------------------:|
    g----------------------------10-12-14-:|
    d-------------------10-12-14----------:|
    a----------10-12-13-------------------:|
    e-10-12-13----------------------------:|…
  • Intro:
    
    e-0--0--0--0---0--0--0--0-----|
    b-3--2--1--0---3--2--1--0-----|
    g-0--0--0--0---0--0--0--0-----|
    d-2--2--2--2---2--2--2--2-----|
    a-2--2--2--2---2--2--2--2-----|
    e-0--0--0--0---0--0--0--0-----|
    
    e-------------------------------------------------------------|
    b--------13--12---------13--12---------13--12---------13--12--|
    g-9--12--12--11--9--12--12--11--9--12--12--11--9--12--12--11--|
    d-9--12--10--9---9--12--10--9---9--12--10--9---9--12--10--9---|
    a-7--10----------7--10----------7--10----------7--10----------|
    e-------------------------------------------------------------|
    
    1st…
  • Drop D Tune:
    
    e-|
    b-|
    g-|
    d-|
    a-|
    D-|
    
    
    Intro:
    
    e---------------------------------|
    b---------------------------------|
    g---------------------------------|
    d---------0-3p0---0--5h6p5p3-5-3--|
    a--3-0--3-------3-----------------|
    D--3-0----------------------------|
    
    
    e-------------------------------------------|
    b-------------------------------------------|
    g-------------------------------------------|
    d---0-3-----0-3p0-----3p0-----3p0-----0-----|
    a-3-----0h3-------3p0-----3p0-----3p0-------|
    D-------------------------------------------|
    Repeat…
  • tuning-standard-EADG
    
    intro-- (guitar only,no bass))
    
    verse 1
    
    1----------------------------------------------------------------------|
    2----------------------------------------------------------------------|
    3-----5555-----5555----3333-------------000----2222-33333333333333333--|
    4-3333----33333----0000----33333333-0000---0000------------------------|
    
    1----------------------------------------------------------------------|
    2----------------------------------------------------------------------|
    3-----5555-----5555----3333-------------000----2222-3333333333333-555--|
    4-3333----33333----0000----33333333-0000---0000------------------------|
    
    chorus…
  • Intro:
    
    e--------------------------------------|
    b--------------------------------------|
    g-0-0----------------------------------|
    d-2-2----------------------------------|(x3)
    a-2-2-0-0-2-2-1-0-1-1---0--0-0---------| 
    e-0-0-----------------3--------3---3-2-|…
  • Intro(Just Continu this fr a while note:  the strum paterrn maybe different)
         a
    e----------------------------------
    b-------2-5--------2-5-------------
    g-2-2-2-2-2--2-2-2-2-2-------------
    d-2-2-2-2-2--2-2-2-2-2-------------
    a-0-0-0-0-0--0-0-0-0-0-------------
    e----------------------------------
    
    (Chorus)…
  • Tuning: Standard
    
    e|---------------------------------------------------------------------------|
    B|---------------------------------------------------------------------------|
    G|----7-7-7------------------------------------------------------------------|
    D|----7-7-7—(Etc)------------------------------------------------------------|
    A|----5-5-5------------------------------------------------------------------|
    E|---------------------------------------------------------------------------|
    “I…
  • Intro:
    
    e-0-0-0-0-0-0-0-0-0-0-0-0-0-0-------| 
    b-3-3-3-3-3-3-3-3-3-3-3-3-3-3-------| 
    g-2-2-2-2-2-2-2-2-2-2-2-2-2-2--7---|
    d-0-0-0-0-0-0-0-0-0-0-0-0-0-0--7---|
    a------------------------------5---|
    e-----------------------------------|
    
    
    Chorus:
    
    e-----5-5---------2-2-2-2--2-2-2-2--------------|…
  • Intro:
    
    e-x-x-x-x--x-x--|
    b-x-x-x-x--x-x--|
    g-x-x-x-x--x-x--|
    d-x-x-x-x--x-x--|
    a-x-x-x-x--x-x--|
    e-x-x-x-x--x-x--|
    
    
    
    Chorus:
    
      C        F    G    A         F   G    
    e--------------------------------------|
    b--------------------------------------|
    g-5-5-5-5------------2-2-2-2-----------|
    d-5-5-5-5--3-3--5-5--2-2-2-2--3-3--5-5-|
    a-3-3-3-3--3-3--5-5--0-0-0-0--3-3--5-5-|
    e----------1-1--3-3-----------1-1--3-3-|…
  • Tuning: standard
    
    e|---------------------------------------------------------------------------|
    B|----------0-1-------------------------0-1----------------------------------|
    G|------2---------2-----------------2---------------4------------------------|
    D|----2---2---------2------5-5--------0---------5-----5----------------------|
    A|--0-----------0-----0-0--5-5--3-------------5---5--------------------------|
    E|-------------------------3-3----1---------3--------------------------------|
    
    e|---------------------------------------------------------------------------|
    B|----------0-1-------------------------0-1---5--3--1--0---------------------|
    G|------2---------2-----------------2----------------------------------------|
    D|----2---2---------2------5-5--------0--------------------------------------|
    A|--0-----------0-----0-0--5-5--3--------------------------------------------|
    E|-------------------------3-3----1------------------------------------------|
    
    e|---------------------------------------------------------------------------|
    B|----------0-1-------------------------0-1---5--3--1--0--1------------------|
    G|------2---------2-----------------2---------------------2------------------|
    D|----2---2---------2------5-5--------0-------------------2------------------|
    A|--0-----------0-----0-0--5-5--3-------------------------0------------------|
    E|-------------------------3-3----1------------------------------------------|…
  • Intro:
           E  E  F# G  E  E  F# G  E  E  F# G  E  E  F# G  E  E  F# G  E E  F#  G
    e---------------------------------------------------------------------------------2~~--
    b---------------------------------------------------------------------------------0~~--
    g---------------------------------------------------------------------------------2~~--
    d------2--2--4--5--2--2--4--5--2--2--4--5--2--2--4--5--2--2--4--5--2--2--4--5-----1~~--
    a------2--2--4--5--2--2--4--5--2--2--4--5--2--2--4--5--2--2--4--5--2--2--4--5--2--2~~--
    e-12s--0--0--2--3--0--0--2--3--0--0--2--3--0--0--2--3--0--0--2--3--0--0--2--3----------
    
    
    Verse:…
  • Intro:
    
    e-------------------------------------------------------|
    b----3-2-1---3-------3-2-1---3------3-2-1---3--3^-1-----|
    g--0-------0-------0-------0------0-------0---------2-0-|
    d-------------------------------------------------------|(x2)
    a-------------------------------------------------------|
    e-------------------------------------------------------|
    
    
    Riff:
    e--------------------------------|
    b--------------------------------|
    g-0-5-3--0-5-3--0-5-3-5s6-5-3-0--|
    d-0-5-3--0-5-3--0-5-3-5s6-5-3-0--|(x3)
    a--------------------------------|
    e--------------------------------|
    
    e-----------------------|
    b-----------------------|
    g-0-5-3--0-5-3-0-5-3----|
    d-0-5-3--0-5-3-0-5-3----|
    a-----------------------|
    e-----------------------|
    
    
    
    Verse:…
  • Intro:
    
          E E D A# A G
    e---------------------|
    b---------------------|
    g-----9-9-7-----------|
    d-----9-9-7--8-3-5----| (repeat as needed.)
    a-----7-7-5--8-3-5----|
    e-0-0--------6-5-3----|
    
    
    Verse:
    
      B…
  • Intro:
    
    e-----------------------|
    b-----------------------|
    g-----------------------|
    d-----------------------|
    a-----------------------|
    e--p i c k s l i d e s--|
    
    
    e-x-x-x-------------(12)---|
    b-x-x-x-------------(12)---|
    g-x-x-x-------=-----(12)---|
    d-x-x-x-------------(12)---|
    a-x-x-x-------------(12)---|ect
    e-x-x-xect----------(12)---|
    
    
    e---------------------|
    b---------------------|
    g---------------------|
    d---------------------|
    a---------------------|
    e--p…
  • Intro: (bar chords)
         E - F# - G - G# - A - A# - A - G# - G (x2)
    
    Verse: B - F# - E - F#
           B - G# - G - F# - B (x4)
    
    Chorus: B - F# - E (bar chords) - F#
            B - G - A - C (x3)
            B - G
    
    Intro (x2)
    
    Verse…
  • INTRO
    
    EI---2-----0-----2-----0-----2-----0-----2-3p2-----------II
    BI---------------------------------------------5-3-------II
    GI-4---4-3---3-4---4-3---3-4---4-3---3-4-----------2-3-4-II
    DI-------------------------------------------------------II
    AI-------------------------------------------------------II
    EI-------------------------------------------------------II
    
    VERSE…
  • h= hammer on
    p= pull off
    ^=full bend
    v=bring bend back down making it sound noticed
    
    
    Ok in this song in some bits there are 2 different guitar bits.
    For those certain sections I`ll writting out the dubbed guitar parts.
    
    
    Intro:…
  • Intro:
    
       G7    A#7     D#7    A#7    G7     A#7  D#9 
    e--3-3----6-6----6-6----6-6----3-3----6-6------|
    b--3-3----6-6----8-8----6-6----3-3----6-6---6--|
    g--4-4----7-7----6-6----7-7----4-4----7-7---6--|
    d--3-3----6-6----8-8----6------3-3----6-6---7--|
    a--5-5----8-8----6-6----8------5-5----8-8---6--|
    e--3-3----6-6-----------6------3-3----6-6------|
    
    
    1st…
  • Intro:
    
    e-------------------0-7-7-0-7-0--|
    b-8-8-8-7-7-7-8-8----------------|
    g--------------------------------| (x4)
    d--------------------------------|
    a--------------------------------|
    e--------------------------------|
    
    
    e------------|
    b------------|
    g------------|
    d------------|
    a------------|
    e-pickslide--|
    
    
    e-3-2-0----------------------------------------------|
    b-------3-0------------------------------------------|
    g-----------2-0--------------------------------------|
    d---------------4-2----------------------------------|
    a-----------------------2-2-3-3----------2-2-3-3-----|
    e-------------------0-0---------3-2--0-0---------4-3-|
    Repeat…
  • From The Start. 
    e-----------------------------------------------|
    b-----------------------------------------------|
    g-2~~-------------------------------------------|
    d-2~~-------------------------------------------|
    a-0~~--12-------------10-11-12-14---15p14p12----|
    e----------13-12-13--------------------------12-|
    
    or…
  • Intro/First Verse:
    
      D#        A#        B
    e------------------------------------|
    b------------------------------------|
    g-----8---------8--------8-------8---|
    d---8---8-----8---8----8---8---8---8-|(x4)
    a-6---------8--------9-------9-------|
    e------------------------------------|…
  • Intro:
               Am                     Dm                
    e-----------0-----0--------:--1-1-1-1-1-1-1--:|
    b--------1-----4-----1-----:--3-3-3-1-3-3-3--:|
    g-----2-----------------2--:--2-2-2-2-2-2-2--:|
    d--------------------------:--0-0-0-0-0-0-0--:|
    a--0-----------------------:-----------------:|
    e--------------------------:-----------------:|…
  • Verse:
    
    e---------------------------:---------------------------:-
    b---------------------------:---------------------------:-
    g----------2----------------:-----------2---------------:-
    d-4--2--4----------------2--:--4--2--4---------------2--:-…
  • Intro:
      
    
    e-----------------------------|
    b----------5-5-----------5-5--|
    g------4-4-----------4-4------|
    d--2-2-----------2-2----------|repeat as needed
    a-----------------------------|
    e-----------------------------|
    
    
    Verse:…
  • Intro:
    
     Am                 Dmaj7               
    e----------------------------------|
    b-------1-0---1-----------5--------|
    g-----2---------2-------7---7------|
    d---2-------2---------6-------6----|
    a-0-----------------7-----------7--|
    e----------------------------------|…
  • Intro:2 gtrs arranged for 1
    C   /G  C/A   /
    e-0---------------
    B-1-0-------------
    G-0---2-000----2--
    D-2-----555----2--
    A-3-----555-3b-0--
    E-------333-------
    
    Verse 1:
    A         F           C                            G
    Oh…
  • This song is in drop D tuning.
    
    ect=keep playing chord as needed
    ^=bend
    [=pull off
    h=hammer on
    Verse: 
    
      D                        C                 D
    e-------------------------------------------------------|
    b-------------------------------------------------------|
    g-7-7-7-7-7-7-7-7-7-7------5-5-5-5-5-5-5-----7--7-7--7-7|
    d-7-7-7-7-7-7-7-7-7-7------5-5-5-5-5-5-5-----7--7-7--7-7|
    a-5-5-5-5-5-5-5-5-5-5-ect--3-3-3-3-3-3-3-ect-5--5-5--5-5|
    D-------------------------------------------------------|…
  • Intro:
    
      A                C#m            D
    e----------5-5-5-----------4-4-4----------7-7---|
    b---------5--5-5----------5--5-5---------7--7-7-|
    g--------6-----6---6-6---6-----6--7-7---7-----7-|
    d-7-7---7------7---6-6--6------6--7-7--7------7-|
    a-7-7--7-------7---4-4-4-------4--5-5-5-------5-|
    e-5-5-5--------5--------------------------------|…
  • Intro:
    
    e-----------------------------------------------|
    b-----------------------------------------------|
    g-----------------------------------------------|
    d-----------------------------------------------|
    a-2-2-2-2-2-2-2ect-0-1-----------------------2--|
    e----------------------4-2---0-0-0-0-2h4p2-2----|
    
    
    e-----------------------------------------------------|
    b--------------------------------------0h2p0----------|
    g--------------------------------0h2p0-------0h2p0----|
    d--------------2h4p2p0-0---0h2p0-------------------0--|
    a-0-0-0-0-2h4-----------------------------------------|
    e-----------------------------------------------------|
    
    
    e--------------------9-10-11-12s---5-4-3----------|
    b----2h4p2---2-2^----9-10-11-12s---------5-4-3----|
    g-4^-------4---------9-10-11-------------------4--|
    d-------------------------------------------------|
    a-------------------------------------------------|
    e-------------------------------------------------|…
  • Verse: *pause while bass plays*
                           
    and when guitar comes in play:
     
      B       C            
    e---------------------|
    b---------------------|
    g-4-4-4-4-5-5-5-5-----|
    d-4-4-4-4-5-5-5-5-(x3)|
    a-2-2-2-2-3-3-3-3-----|
    e---------------------|
    
    
    this…
  • Intro: (bass does it twice first)
          e--------------------------------------|
          b--------------------------------------|
          g-------------------------6--7---------|
          d-----------5-----7-5-7-8---7----------|…
  • Intro:
    
    e-12-12--12-10-10--10-7-7--7--5-5--|
    b----------------------------------|
    g----------------------------------|
    d----------------------------------|
    a----------------------------------|
    e----------------------------------|
    
    
    e-3p2p0--3p2p0--3p2p0--3p2p0--3p2p0--0--|
    b---------------------------------------|
    g---------------------------------------|
    d---------------------------------------|
    a---------------------------------------|
    e---------------------------------------|…
  • Tune low E to D
    
    h=hammer-on
    p=pull off
    ^=bend
    ~=vibrado
    s=slide
    A.H=artificial harmonic
    ect=keep playing as needed
    
    
    
    
    Intro:
    
    e-----------------------|
    b-----------------------|
    g-----------------------|
    d-----------------------|(x5)
    a--2p0-2p0-2p0-0-0-0-2--|
    D--2p0-2p0-2p0-0-0-0-2--|
    
    
    
    
    Verse:
    
    e-------------------------------------|
    b-------------------------------------|
    g--------------------5-5-5-5-5-5-5-5--|
    d--------------------5-5-5-5-5-5-5-5--|(x2)
    a--2-2-2-2--5-5-5-5--3-3-3-3-3-3-3-3--|
    D--2-2-2-2--5-5-5-5-------------------|…
  • INTRO:
    
    Guitar 1:
       E     A     D     B
    e--------------2-2----------------------|
    b--------------3-3----------------------|
    g--------2-2---2-2---4~-----------------|
    d--2-2---2-2---0-0---4~-----------------|
    a--2-2---0-0---------2~with…
  • Verse: *all up strokes*
    
      G        Bm       C        D
    e-2-2-2-2--2-2-2-2--0-0-0-0--2-2-2-2--|
    b-2-2-2-2--3-3-3-3--2-2-2-2--3-3-3-3--|
    g-0-0-0-0--3-3-3-3--x-x-x-x--2-2-2-2--| repeat as needed
    d-x-x-x-x--x-x-x-x--x-x-x-x--x-x-x-x--|
    a-x-x-x-x--x-x-x-x--x-x-x-x-----------|
    e-x-x-x-x-----------------------------|…
  • Intro:(a)
    
      F#  D   A   E    F#  D   A   
    e------------------------------|
    b------------------------------|
    g-----7-7-----9-9------7-7-----|
    d-4-4-7-7-7-7-9-9--4-4-7-7-7-7-|
    a-4-4-5-5-7-7-7-7--4-4-5-5-7-7-|
    e-2-2-----5-5------2-2-----5-5-|…
  • Intro#1: 
    
      over Bm
    e---------2-2--------------------|
    b--------3--3--------------------|
    g-4-4---4---4------------------4-|
    d-4-4--4----4-repeat as needed-4-|
    a-2-2-2-----2------------------2-|
    e--------------------------------|
    
    Intro#2:…
  • Verse:
      E                                 E  B
    e-----------------------------------------|
    b-----------------------------------------|
    g-9--9------------------------------9-----|
    d-9--9------------------------------9--9--|
    a-7--7-7-7-7-7-7-7-7-7-7-7-7-7-7----7--9--|
    e--------------------------------------7--|…
  • h=hammer on
    p= pull offf
    ^=bend
    v=bring bend back down with no strumming of the note or notes
    s=slife
    x-dead noteIntro:
    
       G                                          
    e----3--3------|
    b----3---------|
    g----0---------|
    d----0------(x8)
    a----2----2----|
    e-3--3----3----|
    Verse:…
  • Intro: Over Chords F - G# - C# - A#
    
    e----------------------------------|
    b----------------------------------|
    g---6-5-1-3-0--------6-5-1-3-0-----|
    d-3-----------3-1--3-----------3-1-|
    a----------------------------------|
    e----------------------------------|
    
    
    e---------------------------|
    b---------------------------|
    g---6-5-1-3-0--------6-5-1-3|
    d-3-----------3-1--3--------|
    a---------------------------|
    e---------------------------|…
  • Intro: 
    
       F#
    e---------------|
    b---------------|
    g---------------|
    d--4--4--4-4-4--|
    a--4--4--4-4-4--|
    e--2--2--2-2-2--|
    
    Verse: B - D - C# - (x2)
    
    
      B                    D            C#
    e-----------------------------------------------|
    b-----------------------------------------------|
    g-4-4-4-4---4--4-4-4---7-7-----7----6-6---6---6-|
    d-4---4---4-4--4-4-4---7---7-----7--6-------6-6-|(x2)
    a-2---2-----2--2-2-2---5-----5------4---4-----4-|
    e-----------------------------------------------|…
  • Intro: 
    
      E
    e----------------------------------------|
    b----------------------------------------|
    g-9-9--9-----9-9--9-----9-9--9---------9-|
    d-9-9--9-----9-9--9-----9-9--9---------9-|
    a-7-7--7-----7-7--7-----7-7--7---------7-|
    e----------------------------------------|…
  • *Drum Intro*
    
     Intro then into Verse pt#1
    e-----------------------------------|
    b------5-------5-------3-------3----|
    g----5---5---5---5---5---5---5---5--|
    d--7-------5-------3-------3--------|(x4)
    a-----------------------------------|
    e-----------------------------------|
    
    Verse…
  • Intro:
      F#  A  F#   E        F# A  F#    A
    e-----------------------------------------|
    b-----------------------------------------|
    g-----2-------------------2-----2-2-2-2---|
    d--4--2--4--2-2-2-2----4--2--4--2-2-2-2---|
    a--4--0--4--2-2-2-2----4--0--4--0-0-0-0---|
    e--2-----2--0-0-0-0----2-----2------------|…
  • x=dead note
    s-slide
    h=hammer-on
    p=pull-off
    ~=bend
    
    Intro:                 B7#9#5
    e-------5-7-6-5-0h3p0--10--|
    b-0h5h8----------------8---|
    g----------------------8---|
    d----------------------7---|
    a----------------------x---|
    e----------------------7---|
    
    e------------------------------------------------0-3---|
    b------------------------------------------------------|
    g------------------------------------------------------|
    d------------------------------------------------------|
    a---------1-1--------------1-1----------1-1------------|
    e-0-0-3-3-----3-3--0-0-3-3-----3-3--0-0-----3-3--------|
    
    e--------------------------------------------------------------------|
    b--------------------------------------------------------------------|
    g--------------------------------------------------------------------|
    d---------1-1--------------1-1---------------------------------------|
    a-0-0-3-3-----3-3--0-0-3-3-----3-3----------1-1--------------1-1-----|
    e-----------------------------------0-0-3-3-----3-3--0-0-3-3-----3-3-|…
  • Verse:
    
    e--5-5--5--5--5--5--5-5-5----------|
    b--5-5--5--5--5--5--5-5-5----------|
    g----------------------------------|
    d----------------------------------|(repeat as needed)
    a----------------------------------|
    e----------------------------------|…
  • Intro:
    
    Section 1
    
    e-----------------|
    b-----------------|
    g-----------------|
    d-4-0-4--2-2------|(repeat as needed)
    a-2---2--0-0-4p0--|
    e-----------------|
    
    Section 2
    e--------------------------------|
    b--------------------------------|
    g-4--2--4--2--2-4-4-2-2-4-4-2-2--|
    d-4--2--4--2--2-4-4-2-2-4-4-2-2--|
    a-2--0--2--0--0-2-2-0-0-2-2-0-0--|
    e--------------------------------|
    continue…
  • intro1:
    
    e:-7-----7-----7-----7-----7-----7------
    B:-7-----7-----7-----7-----7-----7------
    G:-9b11--9b11--9b11--9b11--9b11--9b11---
    D:--------------------------------------
    A:--------------------------------------
    E:--------------------------------------
    
    
    e:-7--------------------------------------------------
    B:---7---------------------------------7--------------
    G:------9-7----7------------------7-9-----9-7----7--9-
    D:----------9-----9--5--5--9----9-------------9-------
    A:----------------------------------------------------
    E:----------------------------------------------------
    
    e:-7-----7-----7-----7-----7-----7-----
    B:-7-----7-----7-----7-----7-----7-----
    G:-9b11--9b11--9b11--9b11--9b11--9b11--
    D:-------------------------------------
    A:-------------------------------------
    E:-------------------------------------
    
    
    e:--7---------------------------------------------------------------------
    B:-----7------------------------------------------------------------------
    G:-------9-7----7-------7---7-------7---7-------7-------7---7---7---7-----
    D:-----------9----9-7-9---9---9-7-9---9---9-7-9---9-7-9---9---9---9---9---
    A:------------------------------------------------------------------------
    E:------------------------------------------------------------------------
    
    intro2:
    
    e:------------------------------------
    B:------------------------------------
    G:-x-x-4-4-x-x-4-x-7-7----------------
    D:-x-x-4-4-x-x-4-x-7-7-7-7------------
    A:-x-x-2-2-x-x-2-x-5-5-7-7-2-2--------
    E:---------------------5-5-0-0--------
    
    verse:
    
    e:-------------------------------------------------------
    B:-------------------------------------------------------
    G:-------------------------------------------------------
    D:-x-x-7-x-x-7-x-x-7-x-x-7-7-x-x-7-x-x-7-x-x-7-x-x-7-7---
    A:-x-x-7-x-x-7-x-x-7-x-x-7-7-x-x-7-x-x-7-x-x-7-x-x-7-7---
    E:-x-x-5-x-x-5-x-x-5-x-x-5-5-x-x-5-x-x-5-x-x-5-x-x-5-5---
    
    								X2
    e:-----------------------------------------------------
    B:-----------------------------------------------------
    G:-x-x-7-x-x-7-x-x-7-x-x-7-7---------------------------
    D:-x-x-7-x-x-7-x-x-7-x-x-7-7-x-x-7-x-x-7-x-x-7-x-x-7-7-
    A:-x-x-5-x-x-5-x-x-5-x-x-5-5-x-x-7-x-x-7-x-x-7-x-x-7-7-
    E:---------------------------x-x-5-x-x-5-x-x-5-x-x-5-5-
    
    pre…
  • Intro:
    
    e--s9--9--3--3-3p2---------------|
    b--s9--9--3--3-----3-----3--2----|
    g----------------------2----2----|
    d--------------------3-----------|(x2)
    a---0-----0-----------------0----|
    e--------------------------------|
    
    
    Verse:…
Наверх