Аккорды The Mechanisms - Actaea And Lyssa

Добавлено: @romashka
Дата добавления: 29 Мая 2022г.
Рейтинг:
0.0
Просмотров: 47
Транспонировать - +
e|-------------------------------
B|---3-3---3-3---3-3---3-3---3-3-
G|---2-2---2-2---2-2---2-2---2-2-
D|-0-----0-----------------------
A|-------------2-----2-----0-----
E|-------------------------------
---------------------|
--3-3---3-3---3-3----|
--2-2---2-2---2-2----|
---------------------|
0--------------------|
-------3-----3-------| x2

e|-------------------------------
B|-------0-0---0-0---0-0---0-0---
G|-------0-0---0-0---0-0---0-0---
D|-------------------------------
A|-----------------------------2-
E|-3-2-0-----0-----3-----3-------
-------------------------|
3-3---3-3---3-3---3-3----|
4-4---4-4---2-2---2-2----|
-------------------------|
----2-----0-----0--------|
-------------------------| x2

D              Bm
Breathe in the air
                A   G
The last of its kind
                     D
Feel the sun on your skin
            Bm
Let it sink in
                   A   G
We don't have much time

Em        G
Into the wild
Bm                    A
We'll bring something back
Em        G
Something real
Bm          A
This is our chance

D          Bm
Sister I'm scared
              A       G
It's Olympian land we roam
                   D
Their rage is well-known
                  Bm
But we don't hunt alone
             A   G
Beside you I stand

Em       G
Into the wild
Bm           A
Stay true of aim
Em       G
Beat the hunter
Bm         A
At her own game

D               Bm
We chanced on a glade
                 A         G
And there in the shade she stood
               D
With beautiful eyes
              Bm
And beautiful hair
          A   G
We were ensnared

Em           G
Watching her bathing
Bm                A
We could not look away
Em     G
If you saw her
Bm           A
You’d be the same

[Interlude]
Bm

G        Em
Fawning, panting
Bm        A
Wondering when this will end 
(Starving, hunting)
G        Em
Fawning, panting (Can’t tell my 
prey from my friend)
Bm        A
Wondering when this will end 
(Starving, hunting)
G             Em
Tearing, rending, (Fawning, 
panting)
Bm        A
Feasting, hunting (Wondering when
this will end)
G        Em
Tearing, rending, (Don't you know
me sister)
Bm        A
Feasting, hunting (Don't you know
me, don't you know me) 
Наверх