Аккорды «The Offspring»

The Offspring
В 1984 году два паренька из Оранж Каунти, Брайан «Декстер» Холланд (Bryan «Dexter» Holland) и Грег Крисел (Greg Kriesel) посетили концерт местных героев панк-сцены «SOCIAL DISTORTION» и тут же решили собрать собственную команду. Поделив между собой микрофон и бас, на следующий год они взяли в компанию Кевина «Нудлса» Вассермана (Kevin «Noodles» Wasserman), главным достоинством которого являлось не умение играть на гитаре, а возраст, позволявший легально покупать алкоголь для коллег-недорослей. В… Читать полностью... В 1984 году два паренька из Оранж Каунти, Брайан «Декстер» Холланд (Bryan «Dexter» Holland) и Грег Крисел (Greg Kriesel) посетили концерт местных героев панк-сцены «SOCIAL DISTORTION» и тут же решили собрать собственную команду. Поделив между собой микрофон и бас, на следующий год они взяли в компанию Кевина «Нудлса» Вассермана (Kevin «Noodles» Wasserman), главным достоинством которого являлось не умение играть на гитаре, а возраст, позволявший легально покупать алкоголь для коллег-недорослей. В 1986-м оригинальное название «MANIC SUBSIDAL» заменили на «THE OFFSPRING» и тогда же на доморощенном лейбле «Black Label» выпустили пробную партию в 1000 копий сингла «I'll Be Waiting». Роль барабанщика тогда исполнял Джеймс Лилья (James Lilja), но немного погодя он уступил палочки Рону Уэлти (Ron Welty), и с тех пор кадровые проблемы долгое время не беспокоили «оранжевых» панков. Настрогав парочку демок, «OFFSPRING» стали героями нескольких публикаций, а позже прибились на небольшой лейбл «Nemesis/Cargo». Дебютный альбом получился сыроватым, да и оценить его смогло не так уж много народу – ведь тираж диска составил всего 3000 копий. Продюсировал пластинку Том Уилсон («T.S.O.L.», «VANDALS», «DEAD KENNEDYS»), который хотел пропихнуть группу на фирму Бретта Гурвица «Epitaph Records». Гитарист «BAD RELIGION» сначала подумал, что ему подсовывают неформат, и ответил отказом, однако сделанный под началом Уилсона «оффспринговский» EP «Baghdad» заставил его изменить мнение. В 1992-м на «Epitaph» был опубликован лонгплей «Ignition», и хотя на его презентацию пришло всего 25 человек, вскоре альбом стал настоящим хитом андеграунда, а его тираж, превзойдя ожидания как музыкантов, так и лейбла, перевалил за 1000000 экземпляров. Впрочем, это были еще цветочки, ведь спустя пару лет «OFFSPRING» установили рекорд для инди-релизов, выдав мультимиллионный бестселлер «Smash». Альбом, вобравший в себя элементы хардкора, гранжа, хэви-метал и ска, звучал тяжеловато для панк-рока, но в том-то и состояла вся его прелесть. Мегахит «Come Out And Play», а также пара шлягеров рангом поменьше («Self Esteem», «Gotta Get Away») организовали команде такой прорыв, который ей и не снился – место в ведущей пятерке «Billboard», несметное количество эфиров и толпы новоприобретенных фанатов по всему миру. Разжившись деньжатами, Декстер и Грег основали собственную контору «Nitro Records», но при этом перевели свою группу на «Columbia Records». Конечно, публика ожидала от парней из Оранж Каунти еще одного блокбастера, однако уход к мажорам и отказ от раннего политизированного панка несколько подорвал к ним доверие, и альбом «Ixnay On The Hombre» не оправдал возложенных надежд (несмотря на место в горячей десятке и преодоление трехмиллионного порога продаж). Реабилитация наступила с появлением «Americana», оглушительный успех которого гарантировался уже одним только треком «Pretty Fly (For A White Guy)». Протекшая в интернет до выхода альбома, эта композиция за 10 недель была скачана 22 миллиона раз и по праву возглавила список «Top Pirated Internet Songs». В 2005-м «OFFSPRING» подправили материальное положение сборником «Greatest Hits», а вот с номерным альбомом дело почему-то пробуксовывало. Только после пятилетнего перерыва команда вернулась с «Rise And Fall, Rage And Grace». Камбэк получился слишком мэйнстримовым, ведь одних только пауэр-баллад на диске насчитывалось целых три штуки. Значительную долю ответственности за новое звучание нес продюсер Боб Рок, с которым музыканты сохранили отношения и для альбома «Days Go By», где дебютировал ударник Пит Парада (Pete Parada). Скрыть...
Популярные аккорды The Offspring:
алфавиту | просмотрам | случайно
  • The whole song goes like this (Em)(C)(G)(D)
    
    [solo]
    
    E|-------------|-------------|---3--5--7---|---------------|
    B|--7--9--11---|---3--5--7---|-------------|---5--7--9--11-|
    G|-------------|-------------|-------------|---------------|
    D|-------------|-------------|-------------|---------------|
    A|-------------|-------------|-------------|---------------|
    E|-------------|-------------|-------------|---------------|
    
    (Em)
    When…
  • Intro/interlude
    E|----------------------|
    B|----------------------|
    G|----------------------|
    D|----------------------|
    A|-0---0----3----3----0-|
    E|----------------------|
    
    E|---------------------------------|
    B|---------------------------------|
    G|---------------------------------|
    D|---------------------------------|
    A|-0--0----3----3----7---7---6---5-|
    E|---------------------------------|
    
    E|------------------------------|
    B|------------------------------|
    G|------------------------------|
    D|------------------------------|
    A|-0---0---3---3----0---------4-|
    E|------------------------------|
    
    E|-----------------------------------------------------|
    B|-----------------------------------------------------|
    G|-----------------------------------------------------|
    D|-----------------------------------------------------|
    A|-0----0---3---3-----7---7---6---6---5----3----5----3-|
    E|-----------------------------------------------------|
    
    Main…
  • Проигрыш:
    
    G|---4--4-----2---4--4--9--7--|
    D|---4--4--4--2---4--4--9--7--|
    A|---2--2--4--0---2--2--7--5--|
    E|---------2------------------|
    
      Версия : Play  Hm
    
    You know it's kind of hard just to get along today
    Our subject…
  • Проигрыш: Н
    
      Версия :
    Em               Hm                D                   A   Em
    I'm seeing this girl and she just might be out of her mind
    Well she's got baggage and it's all the emotional kind
    She talks about closure…
  • 1|--------------------------|
    2|--------------------------|
    3|---------7-7--------------|  x2
    4|--4-4-4--5-5--7-7-7-------|
    5|--2-2-2-------5-5-7--7-7--|
    6|---------------------5-5--|
    
    
    1|------------------------------|
    2|------------------------------|
    3|------------------------------|
    4|------------------------------|
    5|-5-5-5-5-5-5-5-5-5-5-5-7-7-7-7|
    6|-3-3-3-3-3-3-3-3-3-3-3-5-5-5-5|…
  • Проигрыш:
    G|-9-------------------------|
    D|-9-9-9-9--11-11-7-7-9-9-9--|
    A|-7-9-9-9--11-11-7-7-9-9-9--|
    E|---7-7-7--9--9--5-7-7-7-7--|
    
    Версия :
    Em(VII)                    Н(VII)
    If you could only read my mind…
  • Version
    
       Fm Cm# Am# Cm
    1:-1--4---6---3--
    2:-1--4---6---3--
    3:-1--6---6---5--
    4:-3--6---8---5--
    5:-3--4---8---3--
    6:-1--4---6---3--
    
    ⁄⁄/////////
         Palm Muting
    
    Chorus
    
      Gm# D# Cm# Cm#
    1:-4--6--4---4--
    2:-4--6--4---4--
    3:-4--8--6---6--
    4:-6--8--6---6--
    5:-6--6--4---4--
    6:-4--6--4---4--
    
    
    Interlude…
  • F             G#              D#              B
    e|-------------------------------------------------------------|
    B|-------------------------------------------------------------|
    G|------------------------------8-8-8-8-8-8-8-8----------------|
    D|3-3-3-3-3-3-3-6-6-6-6-6-6-6-6-8-8-8-8-8-8-8-8-8-8-8-8-8-8-8-8|
    A|3-3-3-3-3-3-3-6-6-6-6-6-6-6-6-6-6-6-6-6-6-6-6-8-8-8-8-8-8-8-8|
    E|1-1-1-1-1-1-1-4-4-4-4-4-4-4-4-----------------6-6-6-6-6-6-6-6|…
  • Версия 1: (No guitar this Версия !!)
    My friend's got a girlfriend
    Man he hates that bitch
    He tells me every day
    He says "Man I really gotta lose my chick
    In the worst kind of way"
    
      Версия 2:
    F
    She sits on her ass
    Bb
    He…
  • Intro 1
    
       Fm Gm# Am# Gm# Fm
    E|--1--4--6---4---1--|
    B|--1--4--6---4---1--|
    G|--1--4--6---4---1--|
    D|--3--6--8---6---3--|
    A|--3--6--8---6---3--|
    E|--1--4--6---4---1--|
    
    Intro 2
    
       Fm Gm# Am# Gm# Am# Gm# Fm
    E|--1--4---6---4---6--4---1--|
    B|--1--4---6---4---6--4---1--|
    G|--1--4---6---4---6--4---1--|
    D|--3--6---8---6---8--6---3--|
    A|--3--6---8---6---8--6---3--|
    E|--1--4---6---4---6--4---1--|
    
    Version…
  • Проигрыш:
    
    G|----------------------------------------|
    D|-4-444-4---R------------4-444-4---R-----|
    A|-4-444-4---R------------4-444-4---R-----|
    E|-2-222-2---R------------2-222-2---R-----|
    
    G|------------------------9-9---9---9-9-9-6-6---6---6-6-6-|
    D|-4-444-4---R------------9-9---9---9-9-9-6-6---6---6-6-6-|
    A|-4-444-4---R------------7-7---7---7-7-7-4-4---4---4-4-4-|
    E|-2-222-2---R--------------------------------------------|
    
    G|-6-6---6---6-6-6-|
    D|-6-6---6---6-6-6-|
    A|-4-4---4---4-4-4-|
    E|-----------------|…
  • Проигрыш:
    E||--------------------------------------------------|
    B||--------------------------------------------------|
    G||--------------------------------------------------|
    D||---5-5--5-5-5--5--5--5-5-5-5--5--5--5-5-5-5-------|
    A||---5-5--5-5-5--5--5--5-5-5-5--5--5--5-5-5-5-------|
    E||---3-3--3-3-3--3--3--3-3-3-3--3--3--3-3-3-3-------|
    
    Mota!
    
    Проигрыш2:
    E|-------------------------------------------------------------
    B|-------------------------------------------------------------|
    G|---12-12--12-12-12--12--12--12-12-12-12--12--12--12-12-12-12-|
    D|---12-12--12-12-12--12--12--12-12-12-12--12--12--12-12-12-12-|
    A|---10-10--10-10-10--10--10--10-10-10-10--10--10--10-10-10-10-|
    E|-------------------------------------------------------------|
    
    Проигрыш3:…
  • Проигрыш:    *=play 9X with fast palm-muting   #=play 4-6X
    e|-----------------------------------------------|
    B|----*---*---*---*---*---*-------#---#---#---#--|
    G|---5---5---5---7---7---7----#--9---9---9---9---|
    D|---7---6---5---4---3---5---7---9---9---9---9---|
    A|---------------------------7---7---7---7---7---|
    E|---------------------------5-------------------|…
  • Riff A
    E|----------------------|-----------------------|
    B|----------------------|-----------------------|
    G|----------------------|-----------------------|
    D|------2----------2----|----2------------------|
    A|-0-------0--3-------3-|-2-----2----------2----|
    E|----------------------|----------0----0-----3-|…
  • riff A:
    d|---------------------------------------------|
    A|---------------------------------------------|
    F|-11---9-11---9-11-13-14-14---14-------14-13--|
    C|-11---9-11---9-11-13-14-14---14-14-14-14-13--|
    G|-9----7--9---7--9-11-12-12---12-14-14-12-11--|
    D|--------------------------------12-12--------|
    
    riff…
  • Intro 1 (Palm Muting), Chorus
    
       Gm# Bm Fm#
    1:-4---7--9--
    2:-4---7--9--
    3:-4---7--11-
    4:-6---9--11-
    5:-6---9--9--
    6:-4---7--9--
    
    Intro 2 (Distortion)
    
       Gm# Bm Cm# Em Fm#
    1:-4---7--4---7--9---
    2:-4---7--4---7--9---
    3:-4---7--6---9--11--
    4:-6---9--6---9--11--
    5:-6---9--4---7--9---
    6:-4---7--4---7--9---
    
    Version…
  • Intro:  C (Cadd2) A  X4
    
    Verse:
    
    C                  Cadd2    A
    I'm not the one who made the world what it is today
    C                  Cadd2      A
    I'm not the one who caused the problems started long ago
    C…
  • Intro & verse
    
    G|-------------------------------------------------------------|
    D|-------------------------------------------------------------|
    A|-----------7------7---------10----------9--------------------|
    E|-0-3/5-5-5---5-5----5-5/8-8----8-87-7-7--7-0-7-8-7-0-7-0-8-7-|
    
    Well,…
  • Проигрыш:
    
    E|-------X6----------|-----------------------------------|
    B|-------/-p-mute--⁄-|-----------------------------------|
    G|---9---------------|-9-9-9-9-9-9-9-9-9-9-9-9-9-9-9-9---|
    D|---9---------------|-9-9-9-9-9-9-9-9-9-9-9-9-9-9-9-9---|
    A|---7---7-7-7-7-7-7-|-7-7-7-7-7-7-7-7-7-7-7-7-7-7-7-7---|
    E|-------0-0-0-0-0-0-|-----------------------------------|…
  • bass
    E|-----------------------------------------------|
    B|-----------------------------------------------|
    G|-----------------------------------------------|
    D|--------------3--33--3-------------------------|
    A|--5--55--5--------------3--33--3---------------|
    E|--------------------------------------3--33--3-|
    vesre…
  • В самом начале  песни на басу играется такая вещица:
                        x6
    G|--------2----------|--------0-----------|
    D|-------------------|----------------2---|
    A|----0--------------|--------------------|
    E|-3-----------3h5-5-|-0--3--------0------|
    
    Hey…
  • Проигрыш:
    G|------------------------------------------------------|
    D|--3--3---3--3--3--2--0--------------------------------|
    A|--------------------------------3--3---3--3--3--2--0--|
    E|------------------------------------------------------|
    
    G|---------------------------------------------|
    D|----------------------------------------0--2-|
    A|----------------0--2--3--3---3--3--3---------|
    E|---3---3--3--3-------------------------------|
    
    G|--------------------------------------------|
    D|-3--3--3/5--3--2--0-------------------------|
    B|-----------------------3--3--3--3--3--2--0--|
    E|--------------------------------------------|
    
    G|-----------------------------5--5--5|
    D|------------------------5--5--5-----|
    B|----------------0--2--3--3--3-------|
    E|--3--3---3--3--3--------------------|
    
    *=…
  • Проигрыш:  !palm-muted!
    G|-------------------------------------|
    D|---7-7-7-5-7-7-7-5-7-7-7-5-7-7-7-5---|
    A|---5-5-5-3-5-5-5-3-5-5-5-3-5-5-5-3---|
    E|-------------------------------------|
    
    Версия  !palm-muted!  *=play 4X…
  • Intro, Chorus
    
       Am Fm Cm (Dm/Cm)
    E|-5--8--8---10-8---|    переходы на последние Dm, Cm
    B|-5--8--8---10-8---|   очень быстрые - можно не играть
    G|-5--10-8---10-8---|
    D|-7--10-10--12-10--|
    A|-7--8--10--12-10--|
    E|-5--8--8---10-8---|
    
    Version:…
  • Intro:   X6
    e|----------------------------------------------|
    B|----------------------------------------------|
    G|---9--9-9--7-7--9-9--12-12-12--11--11-11-11---|
    D|---9--9-9--7-7--9-9--12-12-12--11--11-11-11---|
    A|---7--7-7--5-5--7-7--10-10-10---9---9--9--9---|
    E|----------------------------------------------|
    He's…
  • Guitar 1/intro:
    e|-----------------------------|
    B|-----------------------------|
    G|-----------------------------|
    D|-----------------------------|
    A|-6h8-----6-6-6h8-----6-6-6h8-|
    E|-----------------------------|
    
    Guitar…
  • Key
    ---
    * = play 4x
    b = bend up to the pitch indicated
    r = release bend back to the original pitch
    
    intro
    
    |---------------------------------------|
    |---------------------------------------|
    |-------10*------10*-----10*-----10-9-8-|
    |-8-10--10*--10*-10*--8*-10*-10*-10-9-8-|
    |-8-10---8*--10*--8*--8*--8*-10*--8-7-6-|
    |-6--8--------8*------6*------8*--------|
    
    verse
    
    |---------------|
    |---------------|
    |-7*--------10*-|
    |-7*-8*-10*-10*-|
    |-5*-8*-10*--8*-|
    |----6*--8*-----|
    
    chorus
    
    |---------------|
    |---------------|
    |-7*----10*-----|
    |-7*-8*-10*-10*-|
    |-5*-8*--8*-10*-|
    |----6*------8*-|
    
    solo…
  • Intro:  X4
    E|--------------------------------------------------------|
    B|--------------------------------------------------------|
    G|-------------------------------------------5-5-5--5--5--|
    D|-5-5-5--5--5---5-5-5--5--5---3-3-3--3--3---5-5-5--5--5--|
    A|-5-5-5--5--5---5-5-5--5--5---3-3-3--3--3---3-3-3--3--3--|
    E|-3-3-3--3--3---3-3-3--3--3---1-1-1--1--1----------------|
    
    
    Solo:…
  • Intro:
    
    Distortion Guitar:
    
      D  F  D   C   F      F  D   F  G       G->G#->G  F   D      F  C
    |--------------------|-----------------|--------------------|----------------------|
    |--------------------|-----------------|--------------------|----------------------|
    |-7--10---------10---|-10-----10-12----|-12/13/12--10--7----|-10-------------------|
    |-7--10-12--10--10---|-10-12--10-12----|-12/13/12--10--7----|-10-10--(repeat)------|
    |-5--8--12--10--8----|-8--12--8--10----|-10/13/10--8---5----|-8--10----------------|
    |-------10--8--------|----10-----------|--------------------|----8-----------------|
    
    
    	Then…
  • Версия :
    G|-------------------------------------------------------|
    D|--9-9-----9⁄------------------12-12-12-12⁄11-11/12-12⁄-|
    A|--7-7-----7⁄5-5----5/7-7----7/10-10-10-10⁄9--9-/10-10⁄-|
    E|------------3-3----3/5-5----5/-------------------------|
    Lay…
  • intro
    g:-----------------------|
    d:-----------------------|
    a:-----------------------|
    e:3---5---5-4-3--2/33----|
    
    verse part1
    g:----------2-0-|
    d:2----0-2------|
    a:---0----------|
    e:--------------|
    
    verse part2
    g:---------------------------------------------|
    d:222222------------------000-2222222----------|
    a:--------------0000-3333--------------2222----|
    e:--------3333---------------------------------|
    
    chorus
    
    g:---------------------------------------|
    d:---------------------------------------|
    a:---55-77--77-5-3----5-7--77/5/7777-----|
    e:33----------------33-------------------|
    
    last…
  • Intro:
    e|---------------------------------------------|
    B|--------8--X--75----------------8--X--8--105-|
    G|--7--7--7--X--74---------7--7---7--X--7---74-|
    D|---------------------------------------------|
    A|---------------------------------------------|
    E|---------------------------------------------|
    
    Intro2:…
  • Intro:
    
    F(VIII) F(I) G(III) G#(IV)
    C(III) D#(VI) A#(VI) F(VIII)
    
    Verse:
    e|-----------------------------------|
    B|-----------------------------------|
    G|----------8-8--3-3-3-3---------(5)-|
    D|-6-6-6-6--8-8--3-3-3-3--3-3----(5)-|
    A|-6-6-6-6--6-6--1-1-1-1--3-3----(3)-|
    E|-4-4-4-4----------------1-1--------|
    
    I…
  • Intro 1 (Distortion)
    
    B|-8--11-10-11---11-10-11----11-10-11--13-11-10-11-8-|
    G|-------------8----------10-------------------------|
    
    Intro 2, Version (Palm Muting) & Chorus
    
       Gm D# Am# Fm
    E|-10--6--13--8--|
    B|-10--6--13--8--|
    G|-12--8--15--10-|
    D|-12--8--15--10-|
    A|-10--6--13--8--|
    E|-10--6--13--8--|
    
    Hey,…
  • Verse:  X4
    
    e|-----------------------------|
    B|-----------------------------|
    G|-4-4---x-7-7-----------------|
    D|-4-4---x-7-7---x-7-7---x-9-9-|
    A|-2-2---x-5-5---x-7-7---x-9-9-|
    E|---------------x-5-5---x-7-7-|
    Look at the…
  • Am                   C      Am
    Head over heals I've fit in before
                        E        E7
    Now I don't want to do it no more
    Am                  C           Am
    Held it all in with blood on my face…
  • ------------------------------------------------------------------------------|
    ------------------------------------------------------------------------------|
    -----7-----7-5-5-5-555---------7-7-777-2-2-222---------2b-2p0-----------------|
    -7h9---7h9-----5-5-555-5-5-555-7-7-777-2-2-222-2-2-222--------2p0-2-2-22----0-|
    ---------------3-3-333-5-5-555-5-5-555-0-0-000-2-2-222------------2-2-22-0h2--|
    -----------------------3-3-333-----------------0-0-000------------0-0-00------|
    
    
    ------------------------------------------------------------------------------|
    ------------------------------------------------------------------------------|
    ---------5-5-555---------7-7-777-2-2-222-------------------------------5-5----|
    -----0---5-5-555-5-5-555-7-7-777-2-2-222-2-2-2-----5-2-2------0----0---5-5----|
    -0h2-----3-3-333-5-5-555-5-5-555-0-0-000-2-2-2---5---2-2--0h2--0h2-----3-3----|
    -------3---------3-3-333-----------------0-0-0-7--7--0-0-------------3--------|
    
    
    ------------------------------------------------------------------------------|
    ------------------------------------------------------------------------------|
    -555---------7-7-777-2-2-222-------0h2b-2p0--------------------5-5-555--------|
    -555-5-5-555-7-7-777-2-2-222-2-2-2---------2--2-2-22-----0-------5-555-5-5----|
    -333-5-5-555-5-5-555-0-0-000-2-2-2------------2-2-22-0h2---0h2---3-333-5-5----|
    -----3-3-333-----------------0-0-0------------0-0-00-------------------3-3----|
    
    
    ------------------------------------------------------------------------------|
    ------------------------------------------------------------------------------|
    -----7-7-777-2-2-222---------0h2b-2p0----------0h2p0---------5-5---4h5p4---3--|
    -555-7-7-777-2-2-222-2-2-2-22--------2-2-2-2-22-----2p0------5-5---------5----|
    -555-5-5-555-0-0-000-2-2-2-22----------2-2-2-22--------2p0---3-3--------------|
    -333-----------------0-0-0-00----------0-0-0-00-------------------------------|…
  • Am
    Show me how to lie 
                    F
    You’re getting better all the time 
                C
    And turning all against the one 
          G
    Is an art that’s hard to teach 
    Another clever word 
    Sets off an unsuspecting herd 
    And…
  • Intro:
    G:---------------------}
    D:---------------------}
    A:-7777-7777-7777-7777-}
    E:---------------------}
    
    Main Verse:
    
    G:---------------------}
    D:---------------------}
    A:-77777-55555-77777-77777-555------77777-55555}
    E:-------------------------------777-----------}
    
    Pre…
  • Вступление: C F G C F G
    
               C       C\\H
    There's a moment in time
               Am         Am\\G
    And it's stuck in my mind
    F              G
    Way back, when we were just kids
    
    Cause your eyes told the tale
    Of an…
  • Bass TAB 
    
    Intro                          2X
    G--------------------------------
    D--------------------------------
    A--------------------------------
    E-0-0-0-0-r-r-r-r-0-0-0-0-r-r-r-r
    
    G---------
    D---------
    A-0-0-0-0-
    E---------
    
    Verse…
  • Соло, которое играется в начале каждого куплета 2 раза
    удобнее зажимать как барэ
    1----------5-----|-----7-------|----5-------
    2----5--------5--|----------9--|---------7--
    3-6----6---------|--9----------|-7----------
    4----------------|-------------|------------
    5----------------|-------------|------------
    6----------------|-------------|------------
    А…
  • Main Riff
    
    G|---------------------------------|
    D|---------------------------------|
    A|-------------------------2-2-2-2-|
    E|-2-2-2-2-2-2-2-2-0-0-0-0---------|
    
    This is used in the verse and the 'End of Smash' riff.
    
    Chorus
    
    G|-----------------------------------------------------------------|
    D|-----------------2-2-2-2-2-2-2-2---------------------------------|
    A|-0-0-0-0-0-0-0-0-----------------2-2-2-2-2-2-2-2-2-2-2-2-2-2-2-2-|
    E|-----------------------------------------------------------------|
    
    This…
  • Em
    One is for envy and one just for spite
           C
    The cuts in my heart they show in your eyes
     G
    Don’t make it better the twisting knife
               D
    Turns all by itself on to someone else        
    Your self-liberation will…
  • Bass tab 
    Intro
    				x2
    G|-------1------------------------|
    D|-3-3-3----3-1-3---------1-1-1-1-|
    A|--------------------------------|
    E|----------------4-4-4-4---------|
    
    
    Verse
    
    G|-------------------------------------------------------------|
    D|-3-3-3-3-3-3-3-3-----------------3-3-3-3-3-3-3-3-------------|
    A|-------------------------6-6-6-6-------------------------6r6r|
    E|-----------------4-4-4-4-------------------------4-4-4-4-----|
    
    G|-----------------------------------------------------------------|
    D|-3-3-3-3-3-3-3-3-------------------------------------------------|
    A|-------------------------6-6-6-6-4-4-4-4-4-4-4-4-4-4-4-4-6-6-6-6-|
    E|-----------------4-4-4-4-----------------------------------------|
    
    
    Chorus…
  • Intro
    
    E|------------------| 
    B|------------------|
    G|------------------|
    D|--5--7---2--2--2--|
    A|--5--7---2--2--2--|
    E|--3--5---0--0--0--|
    
    Hit from time to time:
    
    E|-----|
    B|-----|
    G|-----|
    D|--2--|
    A|--2--|
    E|--0--|
    
    The…
  • INTRO 
    E------------------------------------------------------------------|
    B------------------------------------------------------------------|
    G--11-11-9-11-11-11--7-7-7--9-9-9---11-11-9-11-11-11--7-7-7--9-9---|
    D--11-11-9-11-11-11--7-7-7--9-9-9---11-11-9-11-11-11--7-7-7--7-9---|
    A---9--9-7--9--9--9--5-5-5--7-7-7----9--9-7--9--9--9--5-5-5----7---|
    E------------------------------------------------------------------|
    
    VERSE…
  • Intro drums then...
    
    
    |--------------------------------------------|
    |--------------------------------------------|
    |-----------------------7-7-7-7--5-5-5-5-5-5-|  X 4
    |-7-7-7-7--5-5-5-5-5-5--7-7-7-7--5-5-5-5-5-5-|  
    |-7-7-7-7--5-5-5-5-5-5--5-5-5-5--3-3-3-3-3-3-|
    |-5-5-5-5--3-3-3-3-3-3-----------------------|…
  • STANDARD TUNING  Distortion throughout.
    
    Intro
    
    Around 180 bpm
    
      Gtr I x 5
    |-----------------------------------|---------------------------------|
    |-----------------------------------|---------------------------------|
    |-----------------------------------|---------------------------------|
    |-----9-----9-(9)-----5-5---5-5---5-|-0---4---5---4---0---4---5---4---|
    |-7-7---7-7-------0-----------------|---0---0---0---0---2---2---2---2-|
    |-------------------3-----3-----3---|---------------------------------|
    
    Pre-verse
    
    |----------|------------|-----------|-------|
    |----------|------------|-----------|-------|
    |-0--------|-(0)--------|-----------|-------|
    |-2--------|-(2)--------|-----------|-------|
    |-2--------|-(2)--------|-----------|-------|
    |-0--------|-(0)--------|-----------|-------|…
  • INTRO 
    
      first, guitar on its own, then play the first part:
    G:---------------------------------------------------------------
    D:---------------------------------------------------------------
    A:-5--------------2-3-4------------------------------------------
    E:------1-0-1-2-3------------------------------------------------…
  • Intro/Verse
    
    G:---------------------------------------------------------------
    D:---------------------------------------------------------------
    A:-----9-10-10-5-5-5-7-7-------5-5-------------------------------
    E:-7-7-------------------5-5-5-----7-7-7-7-7---------------------
    
    Pre-Chorus(second…
  • C             D
    If I had a perfect day, 
    G                      Em
    I would have it start this way
    C                  D          G                              
    Open up the fridge and have a tall boy yeah!
    C…
  • Tuning:standard (EADgbe)
    
    Intro
    Guitar 1
    e|------------------------------------------|
    B|------------------------------------------|
    G|-11-11-11-11-11-11-11-13-14-16-14-13-9-9--| x3
    D|-x--x--x--x--x--x--x--x--x--x--x--x--x-x--|
    A|-9--9--9--9--9--9--9--11-12-14-12-11-7-7--|
    E|------------------------------------------|
    
    e|--------------------------------------------------|
    B|---------------------------14--15-14-12-----------|
    G|-11-11-11-11-11-7-7-7-7-7---------------14-13-----|
    D|-x--x--x--x--x--x-x-x-x-x---------------------14--|
    A|-9--9--9--9--9--5-5-5-5-5-------------------------|
    E|--------------------------------------------------|
    
    Guitar…
  • Intro~
    
    I---------------------------------------------------------
    I---------------------------------------------------------
    I---------------------------------------------------------
    I--2---2-2-2-2-2-2---2---2-2-2-2-2-2----------------------
    
    I--------------------------------------------------------------------------
    I------------------------------------------------------4-------------------
    I------------------1---1-1-1-1-1-1---4---4-4-4-4-4-4-----------------------
    I--2---2-2-2-2-2-2---------------------------------------------------------
    
    Pre-Verse…
  • The chords are E,G,D,A.
    Intro:E,E,E,E
     E                G                D              A        E
    Deep inside your soul, there's a hole, You dont want to see.Every single
    G              D          A           E
    day what…
  • := Let it ring
            /= Let it slide
    
    
    eI--5:--8:--3:-3-3-3-3-3-2-2-2-2-2-2-3-3-3-3-3-3:-------------
    aI--5:--8:--3:-3-3-3-3-3-2-2-2-2-2-2-3-3-3-3-3-3:-------------
    dI------------------------------------------------------------
    gI------------------------------------------------------------
    bI------------------------------------------------------------
    EI------------------------------------------------------------
    
    This…
  • E--------10-10-9-9-------9-9--------------------|
    B--12-12-----------10-10-----10-10-11/12-11/12--|
    G-----------------------------------------------| X2
    D-----------------------------------------------|
    A-----------------------------------------------|
    E-----------------------------------------------|
    
    E--------14-14-12-12-------12-12-------------------|
    B--12-12-------------13-13-------13-13-14/15-14/15-|
    G--------------------------------------------------|
    D--------------------------------------------------|
    A--------------------------------------------------|
    E--------------------------------------------------|
    
    E--------10-10-9-9-------9-9-----------------------|
    B--12-12-----------10-10-----10-10-11b*-11b*-11**--|
    G--------------------------------------------------|…
  • Drop-D tuning [DADGBE]
    
    when the guitar comes in, it starts with
    [---]
    [---]
    [---]
    [-4-]
    [-4-]
    [-4-]  x5
    
    We are strong.....
    [---------]
    [---------]
    [---------]
    [-4-------]
    [-4-------]
    [-4---1---]   x4
    
    We will never lose…
  • Tuning: why, it's standard of course...
    
    e|---------------------------------------------------------------------------|
    B|---------------------------------------------------------------------------|
    G|---------------------------------------------------------------------------|
    D|-9-------------------------------------------------------------------------|
    A|-7---9---7---11-7----------------------------------------------------------|
    E|-----7---5----9-5----------------------------------------------------------|…
  • e|---------------------------------------------------------
    B|---------------------------------------------------------
    G|---------------------------------------------------------
    D|---------------------------------------------------------
    A|-----*------------------7-7-9-9*-------------------7-7-9-9
    E|-----142-2-0-2-2-0-2-2-----------0-2-2-0-2-2-0-2-2-------
    *play…
  • Intro 
    e---7-----0----7-----0-----12----------------------------
    B---8-----0----8-----0----------12-----------------------
    G----------------------------------------------------------
    D----------------------------------------------------------
    A----------------------------------------------------------
    E----------------------------------------------------------
    
    Riff…
  • Intro. (Just fill the notes in as much as u feel)
    G---------------------------------------------------
    D---------------------------------------------------
    A----------------7------------------7--------------
    E--0-0-0-0-0-0---0-0-0-0-0-0-0----------------
    
    
    Repeats…
  • Standard Tuning
    
    Chords definition:
    
       E(lo)  A  B  C  C#  D   E(hi)
    |--0---------------------------------------------|
    |--0------2--4--5--6---7---9---------------------|
    |--4------2--4--5--6---7---9---------------------|
    |--2------2--4--5--6---7---9---------------------|
    |--2------0--2--3--4---5---7---------------------|
    |--0---------------------------------------------|
    
    There's…
  • x - scratch
    : - let ring
    pm - palm mute
    
    
    verse 1
    
    |------------------------|
    |------------------------|
    |-10-10-----10-8-8----8--|
    |-10-10--10-10-8-8--8-8--|
    |--8--8--10--8-6-6--8-6--|
    |---------8---------6----|
    
    verse…
  • VERSE/CHORUS 1
    D:------00--22
    A:-22-----------00-11
    
    CHORUS 2
    D:---------5555--0000--(7777) GUITAR
    A:-2222
    
    BRIDGE
    D:-------------------------------------------------------4444444
    A:-22------55------------------------22------55
    E:--------------------33------55
    
    VERSE/CHORUS…
  • Riff
    e----9-----------------------------------------------------
    B----9-----------------------------------------------------
    G---10-----------------------------------------------------
    D---11-----------------------------------------------------
    A---11-----------------------------------------------------
    E----9-----------------------------------------------------
    
    Verse
    e----------------------------------------------------------
    B----------------------------------------------------------
    G----------------------------------------11-11-11-11-11-11-
    D--11-11-11-11-11-11--11-11-11-11-11-11--11-11-11-11-11-11-
    A--11-11-11-11-11-11--11-11-11-11-11-11---9--9--9--9--9--9-
    E---9--9--9--9--9--9---9--9--9--9--9--9--------------------
    
    (continued)
    e----------------------------------------------------------
    B----------------------------------------------------------
    G--10-11-13-13-13------------------------------------------
    D--10-11-13-13-13--11-11-11-11-----------------------------
    A---8--9-11-11-11--11-11-11-11-----------------------------
    E-------------------9--9--9--9-----------------------------
    
    Chorus…
  • Intro x2
    
    G:-----------------------------------------------------
    D:---3------3333-5-6-5-1111-5-6-5------1-6-5-3333333---
    A:--------------------------------4444-----------------
    E:-----------------------------------------------------
    
    Verse…
  • -------------|-----------|------------|----------|----------------------------
    -------------|-----------|------------|----------|----------------------------
    -------------|-----------|------------|----------|----------------------------
    -6----3-5---3|-6-6-6-3-5-|-5-----3----|-5-5-5---3|----------------------------
    -------------|-----------|-----6----6-|-------6--|----------------------------
    -------------|-----------|------------|----------|----------------------------…
  • # intro #    X4     (mute d-string with your index finger)
    E---------------------------------------|                              
    B---------------------------------------|
    G-----------------------------------9---|
    D---14-14-15-14-12-9-12-12-14-14-12-----|
    A---12-12-13-12-10-7-10-10-12-12-10-7---|
    E---------------------------------------|
    
    #…
  • Intro:
    
    e|---------------------|
    B|---------------------|
    G|-7-7-5-7-7-5-7-7-3-5-|  X 2
    D|-7-7-5-7-7-5-7-7-3-5-|
    A|-5-5-3-5-5-3-5-5-1-3-|
    E|---------------------|
    
    Verse:
    
    e|----------------------------------------------------
    E|----------------------------------------------------
    B|----------------------------------------------------
    G|-7-9-10-7--2-2--5--5-5-2-2-2------------------------
    D|-7-9-10-7--2-2--5--5-5-2-2-2--3-3-3-5-7-7-5-7-7-5-7-
    A|-5-7--8-5--0-0--3--3-3-0-0-0--1-1-1-3-5-5-3-5-5-3-5-
    E|----------------------------------------------------…
  • # intro #   X 2  (second time without the brackets)
    E--------------------------------------------------------------------------|
    B--------------------------------------------------------------------------|
    G--(9--9--9--9)--9-9-9--7-7-7----------------------------------------------|
    D--(9--9--9--9)--9-9-9--7-7-7--7-7-7--7-7-8-7--5-5-5--7-7-7--9-9-9-8-8-9---|
    A--(7--7--7--7)--7-7-7--5-5-5--7-7-7--7-7-8-7--5-5-5--7-7-7--9-9-9-8-8-9---|
    E------------------------------5-5-5--5-5-6-5--3-3-3--5-5-5--7-7-7-6-6-7---|
    
    #…
  • chords used
    e|-----------------------------------|
    B|-----------------------------------|
    G|---8---9---4---10---11-------6-----|
    D|---8---9---4---10---11---7---6-----|
    A|---6---7---2---8----9----7---4-----|
    E|-------------------------5---------|…
  • INTRO (2x)
       E5               D5        G5    G#5 A5            C5      G5
    E-------------------------------------------------------------------------
    B-------------------------------------------------------------------------
    G--9--9---9--9-9-9--7-7-7---7--------------------------------/12-12-12----
    D--9--9---9--9-9-9--7-7-7---7-5-5-5-6-7-7--7-7-7-7--7/10-10--/12-12-12----
    A--7--7---7--7-7-7--5-5-5---5-5-5-5-6-7-7--7-7-7-7--7/10-10--/10-10-10----
    E-----------------------------3-3-3-4-5-5--5-5-5-5--5/8--8----------------
    
    
    VERSE…
  • Intro
    
    e--7-------------8-----|
    B-----8-----10---------|
    G----------------------|
    D----------------------|
    A----------------------|
    E----------------------|
    
    
    e----------------------|
    B----------------------|
    G--9~------------9~----|
    D--9~------------9~----|
    A--7~------------7~----|
    E----------------------|
    
    
    e---------------------------------------------------------------|
    B---------------------------------------------------------------|
    G-9-9-9-9-9-9-7-7-7-7-7-7-------------12-12-12-12-14-14-14-14---|
    D-9-9-9-9-9-9-7-7-7-7-7-7-7-7-7-7-7-7-12-12-12-12-14-14-14-14---|
    A-7-7-7-7-7-7-5-5-5-5-5-5-7-7-7-7-7-7-10-10-10-10-12-12-12-12---|
    E-------------------------5-5-5-5-5-5---------------------------|
    
    Verse
    
    e---------------------------------------------------------------|
    B---------------------------------------------------------------|
    G-9~--12-11-12-9--12-11-7~--------------------------------------|
    D-9~--12-11-12-9--12-11-7~-5-5-5-5-5-5-7-7-7-7-7-7--------------|
    A-7~--10--9-10-7--10--9-5~-5-5-5-5-5-5-7-7-7-7-7-7--------------|
    E--------------------------3-3-3-3-3-3-5-5-5-5-5-5--------------|…
  • Intro 
    e-----------------------------------------------------------
    B-----------------------------------------------------------
    G------7-----7--7------10-----10---10------5-----3---3------
    D--0-0---0-0--0----0-0----0-0----0-----0-0---0-0---0--------
    A-----------------------------------------------------------
    E-----------------------------------------------------------
    
    (continued)
    e-----------------------------------------------------------
    B-----------------------------------------------------------
    G------2-----2---2------7-----7--7------10-----10---10------
    D--0-0---0-0--0-----0-0---0-0--0----0-0----0-0----0---------
    A-----------------------------------------------------------
    E-----------------------------------------------------------
    
    (continued)
    e-----------------------------------------------------------
    B-----------------------------------------------------------
    G------5-----3---3------7-----7---7-------------------------
    D--0-0---0-0---0----0-0---0-0---0---------------------------
    A-----------------------------------------------------------
    E-----------------------------------------------------------
    
    Riff…
  • # intro #   X4                                                         
    E-----------------------------------------------------|                
    B-----------------------------------------------------|                
    G--10--10-10-10-10-10-10-10-10-10-10---6---6--8---8---|…
  • x - scratch 
    /  - slide 
    : - let ring 
    pm - palm mute 
    p - pull off 
    
    
    intro / riff - guitar 1 - guitar 2 comes in and plays the same thing without x 
    
    |----------------------------------------------------------------------------|…
  • Am
    I woke the other day
    C
    And saw my world has changed
    F                                       G
    The past is over but tomorrow‘s wishful thinking
    I can‘t hold onto what‘s been done
    I can‘t grab onto what‘s to come
    And I‘m…
  • // = pick slide
    
    Intro
    e---------------------------------------------------------
    B---------------------------------------------------------
    G-----------7-------------------------10-10-10--9-9-9--7--
    D--//---9---7---9--9m-9m-9m-9m-9m-9m--10-10-10--9-9-9--7--
    A--//---9---5---9--9m-9m-9m-9m-9m-9m---8--8--8--7-7-7--5--
    E-------7-------7--7m-7m-7m-7m-7m-7m----------------------
    
    (continued)
    e---------------------------------------------------------
    B---------------------------------------------------------
    G--7m-7m-7m-7m-7m-7m--10-10-10--9-9-9--7------------------
    D--7m-7m-7m-7m-7m-7m--10-10-10--9-9-9--7------------------
    A--5m-5m-5m-5m-5m-5m---8--8--8--7-7-7--5------------------
    E---------------------------------------------------------
    
    Chorus…
  • Tuning ; Standard
    
    Intro/Verse:
    e|-6--6--6--6---4--4---2--2--|
    b|-7--7--7--7---6--6---4--4--|
    G|-6--6--6--6---6--6---4--4--|
    D|---------------------------|
    A|---------------------------|
    E|---------------------------|
    
    Chorus:
    e|-6--6--6--6---9---9----7--7--|
    b|-7--7--7--7---9---9----7--7--|
    G|-6--6--6--6---10--10---8--8--|
    D|-----------------------------|
    A|-----------------------------|
    E|-----------------------------|
    
    Bridge:
    Wont…
  • Intro/Chorus (geetar 1), (played twice at intro):
    
    e|---------------------|-----------------------------------------|
    B|---------------------|------------10-11-11-10--------5-6-6-5---|
    G|---7-7-7--10--9-10---|---10-10-10-10-10-10-10--5-5-5-5-5-5-5---|
    D|---7-7-7--12-12-12---|---10-10-10--------------5-5-5-----------|
    A|---------------------|-----------------------------------------|
    E|---------------------|-----------------------------------------|
    
    e|---------------------|
    B|---------------------|
    G|---7-7-7--10--9-10---|
    D|---7-7-7--12-12-12---|
    A|---------------------|
    E|---------------------|
    
    Intro/Chorus…
  • Intro                   x4
    G|----------------------||
    D|----------------------||
    A|--5-58-87-76-6--------||
    E|----------------------||
    
    Verse                       x4
    |---------------------------||
    |---------------------------||
    |--5555--8888--3333---0003--||
    |---------------------------||
    
    Prй-chorus…
  • Intro:
    
             G#            E5      B      F#          C#      B
    |----------------------------------------------------------------
    |----------------------------------------------------------------
    |--12-------------------------4-4-4---------------6-6-6--4-4----
    |--------6---6-6-6-6---2-2-2---4-4-4---4--4-4-4-4--6-6-6--4-4----…
  • This song is damn easy to play, cus it's based on the same riff and the same 
    3 chords(D,C and G) during all the song.
    
    
    Verse(the song hasn't got an intro)
    
    
        e---------------------------------
        B---------------------------------…
  • Riff A (INTRO)
    e|--------------------------------------|
    B|--------------------------------------|
    G|-12-11-9-7-7/9--9-12-11-9-7-9-7-4-7-9-|
    D|--x--x-x-x-x-x--x--x--x-x-x-x-x-x-x-x-|
    A|-10--9-7-5-5/7--7-10--9-7-5-7-5-2-5-7-|
    E|--------------------------------------|
    
    VERSE
    e|-------------------------------|
    B|-------------------------------|
    G|-9-9-9-7-9-9-9---------5-5-7-7-|
    D|-9-9-9-7-9-9-9-7-7-7-7-5-5-7-7-|…
  • |-----------------------------------------|
    |-------------------------------2---2-2---|
    |--------------------------2--2---------2-|
    |-----------2--2-4-2-4-2-4--------2-------|
    |-4-2-4-2-4-------------------------------|
    |-----------------------------------------|
    
    |-----------------------------------------|
    |-------------------------------2---2-2-0-|
    |--------------------------2--2-----------|
    |-----------2--2-4-2-4-2-4--------2-------|
    |-4-2-4-2-4-------------------------------|
    |-----------------------------------------|
    
    |-----------------------------------------------------0-|
    |-2-0-2-0-2---0-2-0-2-0-2---0-2-0-2-0-2---0-2-0-2-0-2---|
    |-----------2-------------2-------------2---------------|
    |-------------------------------------------------------|
    |-------------------------------------------------------|
    |-------------------------------------------------------|
    
    play…
  • Intro: (Guitar 1)
    -|----------------------------------------------------------------|-
    -|----------------------------------------------------------------|-
    -|----------------------------------------------------------------|-
    -|-----7-6----------------7-6-6h9b-----7-6------------------------|-
    -|-7-8-----5-5/7-2b--7-8----------7-8-----5-5/7-2b--0-0-0-0-0h2b|-
    -|----------------------------------------------------------------|-…
  • Intro
    e----------------------------------------------------------
    B----------------------------------------------------------
    G----------------------------------------------------------
    D--------------4-4--0--3-3--0---------------4-4--0--3-3--0-
    A-0-0-0-2-2-2------------------0-0-0-2-2-2-----------------
    E----------------------------------------------------------
    
    Verse
    e----------------------------------------------------------
    B----------------------------------------------------------
    G---------------11--10--7----------------11--10--7---------
    D--7-7-7-9-9-9--11--10--7---7-7-7-9-9-9--11--10--7---------
    A--7-7-7-9-9-9---9---8--5---7-7-7-9-9-9---9---8--5---------
    E--5-5-5-7-7-7--------------5-5-5-7-7-7--------------------
    
    Fill
    e----------------------------------------------------------
    B----------------------------------------------------------
    G--9-9-9-9--12-12--9-9--12-12-12-12------------------------
    D--9-9-9-9--12-12--9-9--12-12-12-12------------------------
    A--7-7-7-7--10-10--7-7--10-10-10-10------------------------
    E----------------------------------------------------------
    
    Chorus
    e----------------------------------------------------------
    B----------------------------------------------------------
    G-------5-5-5-------7-7-7----------------------------------
    D--5-5--5-5-5--5-5--7-7-7--9-9-9-9-9-9-9-9-9-9-9-9-9-9-9-9-
    A--5-5--3-3-3--5-5--5-5-5--9-9-9-9-9-9-9-9-9-9-9-9-9-9-9-9-
    E--3-3---------3-3---------7-7-7-7-7-7-7-7-7-7-7-7-7-7-7-7-
    
    (continued)
    e----------------------------------------------------------
    B----------------------------------------------------------
    G-------5-5-5-------7-7-7----------------------------------
    D--5-5--5-5-5--5-5--7-7-7--4---4-4-4-4-4-4-----------------
    A--5-5--3-3-3--5-5--5-5-5--4---4-4-4-4-4-4-----------------
    E--3-3---------3-3---------2---2-2-2-2-2-2-----------------
    
    Riff
    e----------------------------------------------------------
    B----------------------------------------------------------
    G--8--8--8-8--8--8------8--8--8-8--8--8--------------------
    D--9--9--9-9--9--9--7---9--9--9-9--9--9--7-----------------
    A--9--9--9-9--9--9--7---9--9--9-9--9--9--7-----------------
    E--7--7--7-7--7--7--5---7--7--7-7--7--7--5-----------------
    
    Bridge…
  • /  - slide
    : - let ring
    p - pull off
    h - hammer on
    
    
    intro
    
    |-----|
    |-----|
    |-9:--|
    |-9:--|
    |-7:--|
    |-----|
    
    main riff
    
    |---------------------------12-|
    |---------------------------12-|
    |-9-9-7-9-10/1410-9-9-7-9-----|  this…
  • : - let it ring
    
    verse
    
    |------------------------------------------------------------------------------
    |------------------------------------------------------------------------------
    |------------------------------------------------------------------------------
    |-4-4-4-4-2/5--4-4-4-4-2/5--4-4-4-4-2/5--4-4-4-4-2/5--2-2-2-2-0/3--2-2-2-2-0/5-
    |-4-4-4-4-2/5--4-4-4-4-2/5--4-4-4-4-2/5--4-4-4-4-2/5--2-2-2-2-0/3--2-2-2-2-0/5-
    |-2-2-2-2-0/3--2-2-2-2-0/3--2-2-2-2-0/3--2-2-2-2-0/3--0-0-0-0-0/1--0-0-0-0-0/3-…
  • Guitar low-high: Db, Ab, Db, Gb, Bb, Eb
    
    feedback then
    Drum beat intro. then--
    verse1
    A.                             Ab               G               A
                   even if you turn    sweep it all aside under the rug…
  • 4 measures of drum
    .A.
    E|-------------------------------|
    B|-------------------------------|
    G|-------------------------------|
    D|-4-4--44444----4-4--44444------|  x2
    A|-4-4--44444----4-4--44444------|
    E|-2-2--22222----2-2--22222------|…
  • Technical Stuff
    X=PICK SCRAPE
    =SLIDE OUT
    (  )=COUNTINUATION  NOT STRUMMED
    
    ( INTRO )    PLAY 3 TIMES
    ---------------------------------------------
    ---------------------------------------------
    -9--9-9--X--7-7-7-7--X-------------…
  • INTRO	
    
    E-6-6-4-4-7-7-7-6--|
    B-4-4-4-4-4-4-4-4--|
    G------------------|      X  4
    D------------------|
    A------------------|
    E------------------|
      
    VERSE #1
    
    E-----------------------|--------------|
    B-----------------------|--------------|
    G-8--6--9-8--8--6--9-8--|--------------|…
  • Tuning:EADGBe
    
    Intro: (Nothing changes cause it's all the same...)
    e|-----------------||-------------------|
    B|-----------------||-------------------|
    G|-7---7-----7---7-||-------------------|
    D|-7-5-7-5-7-7-7-7-||-7-8-9-10-11-12-4~-|
    A|-5-5-5-5-7-5-7-5-||-------------------|
    E|---3---3-5---5---||-------------------|
    
    Verse:
    e|-----------||-----------|
    B|-----------||-8-10-7-10-|
    G|-5-7-7-5-7-||-x--x-x-x--|
    D|-5-7-7-5-7-||-5--7-5-7--|
    A|-3-5-5-3-5-||-----------|
    E|-----------||-----------|
    
    Pre-Chorus:(An…
Наверх