Аккорды The Offspring - Dirty Magic

Добавлено: @romashka
Дата добавления: 16 Февраля 2021г.
Рейтинг:
0.0
Просмотров: 149
Транспонировать - +
Intro & Verse:
 e|---------------------------------------------------------------------|
 B|---------------------------------------------------------------------|
 G|---------------------------------------------------------------------| 
 D|---------------------------------------------------------------------| 
 A|-----------7------7---------10--------9-------2----3-2-----2---3-2---| 
 E|-0-3/5-5-5---5-5----5-5-8-8----8--7-7--7----0---0--------0---0-------| 

 e|---------------------------------------------------------------------|
 B|---------------------------------------------------------------------| 
 G|---------------------------------------------------------------------| 
 D|---------------------------------------------------------------------| 
 A|-----------7------7---------10--------9-------2----3-2-----2---3-2---| 
 E|--3/5-5-5---5-5----5-5-8-8----8--7-7--7----0---0--------0---0--------|
Наверх