Аккорды The Primitives - Crash

Добавлено: @romashka
Дата добавления: 25 Января 2020г.
Рейтинг:
0.0
Просмотров: 10
Транспонировать - +
Intro:
  B        E        F#       E     
E|-2--2--2|-4--4--4|-2--2--2|-4--4--4|
B|--0--0--|--0--0--|--0--0--|--0--0--|
G|4--4--4-|4--4--4-|3--3--3-|4--4--4-|
D|--------|--------|--------|--------|
A|--------|--------|--------|--------|
E|--------|--------|--------|--------|

  B        E        F#       E
E|-2--2--2|-4--4--4|-2--2--2|---|
B|--0--0--|--0--0--|--0--0--|---|
G|4--4--4-|4--4--4-|3--3--3-|9--|
D|--------|--------|--------|9--|
A|--------|--------|--------|7--|
E|--------|--------|--------|---|

Verse 1:
          B           E
Here you go, way too fast
 F#                            E
Don't slow down, you're gonna crash
            B                  E
You should watch, watch your step
 F#                     E
Don't look out, gonna break your neck

     B              E
So shut, shut your mouth
      F#                E
Cause I'm not listening anyhow
           B                E
I've had enough, enough of you
  F#              E
Enough to last a lifetime through

Pre-Chorus:
    F#
So what do you want of me
 B               E
Got no words of sympathy
    F#   
And if I go around with you
      B              E
You know that I get messed up, too
        (or F# instead tabs)
       E|--------0--------|
       B|----0------2-0-2-|
       G|--3---3----------|
       D|4----------------|
       A|-----------------|
       E|-----------------|
With you

Chorus:
B              E              F#
Na na na na na na na na na na ah
B              E              F#
Na na na na na na na na na na ah

E|-----|
B|-----|
G|--9--|
D|--9--|
A|--7--|
E|-----|

Verse 2:
          B           E     
Here you go, way too fast
 F#                             E
Don't slow down, you're gonna crash
            B               E
You don't know what's been going down
 F#                     E
You've been running all over town

     B              E     
So shut, shut your mouth
      F#                E
Cause I'm not listening anyhow
           B                E
I've had enough, enough of you
  F#              E
Enough to last a lifetime through

Pre-Chorus:
    F#
So what do you want of me
 B               E
Got no cure for misery
    F#
And if I go around with you
      B              E
You know that I get messed up, too
        (F#)
       E|--------0--------|
       B|----0------2-0-2-|
       G|--3---3----------|
       D|4----------------|
       A|-----------------|
       E|-----------------|x2
With you

        (F#)
       E|--------0--------|
       B|----0------2-0-2-|
       G|--3---3----------|
       D|4----------------|
       A|-----------------|
       E|-----------------|
With you

        (F#)
       E|--------0--------|
       B|----0------2-0-2-|
       G|--3---3----------|
       D|4----------------|
       A|-----------------|
       E|-----------------|
With you

Outro: (after 3 times play and sing diminuendo(>)
B              E              F#
Na na na na na na na na na na ah
                           E  
(Slow down) you're gonna crash
B              E              F#
Na na na na na na na na na na ah
                           E  
(Slow down) you're gonna crash }x4
comments powered by Disqus
Наверх