Аккорды «The Rasmus»

The Rasmus
The Rasmus — финская рок-группа, сформировавшаяся в 1994 году в Хельсинки, когда члены группы ещё учились в школе. Основана она была Лаури Илоненом (вокал, тексты), Ээро Хейноненом (бас), Паули Рантасалми (гитара) и Янне Хейсканеном (ударные). Хейсканен ушёл из группы в 1998 году, и вскоре его заменил Аки Хакала. До выпуска четвёртого студийного альбома Into (2001) группа называлась просто Rasmus, но затем название изменили на The Rasmus, чтобы оно не совпадало с именем шведского ди-джея. Мировую… Читать полностью... The Rasmus — финская рок-группа, сформировавшаяся в 1994 году в Хельсинки, когда члены группы ещё учились в школе. Основана она была Лаури Илоненом (вокал, тексты), Ээро Хейноненом (бас), Паули Рантасалми (гитара) и Янне Хейсканеном (ударные). Хейсканен ушёл из группы в 1998 году, и вскоре его заменил Аки Хакала. До выпуска четвёртого студийного альбома Into (2001) группа называлась просто Rasmus, но затем название изменили на The Rasmus, чтобы оно не совпадало с именем шведского ди-джея. Мировую известность они завоевали со своим альбомом Dead Letters 2003 года и синглом «In the Shadows», вышедшим в топы музыкальных чартов в нескольких странах. The Rasmus — одна из самых успешных финских групп: по всему миру продано более 3,5 миллионов их альбомов, они получили восемь золотых и пять платиновых наград. The Rasmus выпустили семь студийных альбомов, два сборника и 24 сингла. Самые известные их песни — «Liquid», «F-F-F-Falling», «In the Shadows», «First Day of My Life», «Funeral Song», «No Fear» и «Sail Away». История группы Лаури, Ээро и Паули, основавшие группу, знакомы со школы, когда им было по 13-15 лет. Дебютное выступление Rasmus прошло, когда участники группы ещё учились в средней школе в Хельсинки. На выпускных балах они играли песни Nirvana и Metallica, имея немалый успех среди одноклассников. Тогда они назывались Sputnik, потом название заменили на Anttila и наконец остановились на Rasmus. В 1995 году у них появился новый менеджер Теджа Котилаинен, который работал в Oranssi Klubi. Познакомившись с командой, Теджа предложил им записать несколько песен. «Мы уже знали его. Мы создали сильную команду, и все еще существовали. Мы сразу поняли, что это только начало долгой и трудной работы», — говорит Лаури. В декабре 1995 года записывается первое демо под названием «1st», включавшее четыре трека. Благодаря этому диску The Rasmus получили контракт с финским отделением Warner Music. Поп-рок с налётом модной в то время готичности показался менеджерам компании весьма перспективным. После этого, в начале 1996 года музыканты подготовили второй и третий сингл, названные соответственно «2nd» и «3rd». Первый полноформатный альбом под названием «Peep», который вышел только в Финляндии, появился в мае 1996 года и через несколько месяцев получил золотой статус. В поддержку нового альбом The Rasmus в течение одного года сыграли более сотни концертов, в том числе в Эстонии и России, и лишь затем приступили к записи нового диска. В это время, в 1996 году, музыкантам было по 16 лет. Вернувшись домой, квартет занялся следующим альбомом. Три промо-сингла - «Kola», «Playboys» и «Blue» (который впоследствии получил золотой статус), предваряли его выход. Альбом под названием «Playboys» появился в продаже в августе 1997 года и также вскоре получил золотой статус, а Rasmus — премию «Эмми» (финский аналог Грэмми) в номинации «Лучшая новая группа». В августе 1997 года Rasmus выступили на Олимпийском стадионе в Хельсинки в рамках сборного шоу. Концерт собрал около 40 тысяч зрителей и транслировался по национальному телевидению. Гастрольное расписание команды на 1997 год предусматривало более сотни выступлений в Финляндии и ряде европейских стран, в том числе на разогреве у Rancid и Dog Eat Dog. В этом туре к Rasmus присоединился известный клавишник Хенри Сорвали, один из основателей Finntroll. Участники группы тем временем уже обдумывали новый материал. Третий альбом «Hell of a Tester» вышел ещё через год, в сентябре 1998-го. На нем в активе команды наконец появился первый настоящий хит. Сингл «Liquid», уже получивший свою долю радиоэфира, по результатам опроса музыкальных критиков был назван лучшим синглом Финляндии 1998 года, а видеоклип «Liquid» поднялся в Тор 40 европейского MTV. К этому времени команда считалась одним из самых привлекательных и перспективных рок-коллективов Скандинавии. Гитарист Паули вдобавок зарекомендовал себя как успешный продюсер и в 2001 году был назван лучшим продюсером Финляндии по версии Emmy. После этого четверка делает трёхгодичный перерыв в дискографии. Пауза заполняется лишь изданием в 1999 году сингла «Swimming with the Kids», который включает ремикс трека «Tempo» и новую версию «Life 705». Концертная активность, тем временем, не идёт на убыль. Когда в Финляндию приезжают Garbage, а затем Red Hot Chili Peppers, разогревать публику перед их выходом на сцену доверяют именно The Rasmus. В 1999 году команда даёт восемьдесят с лишним концертов в Финляндии, в том числе и в крупнейшем зале Хельсинки Ice Hall. Выступления проходят с участием нового барабанщика Аки Хакала, пришедшего на смену предыдущего барабанщика — Янне Хейсканена. Аки до этого уже несколько лет был фаном Rasmus и помогал продавать сувениры перед их концертами. Вскоре коллекция наград Rasmus пополняется премией за клип «Liquid» на финском фестивале музыкального видео. В самом начале 2001 года команда, которая готовится к возвращению в строй, выпускает сборник лучших, редких и ещё неизданных треков «Hell of a Collection», своего рода итог сотрудничества с компанией Warner Music Finland. Параллельно начинается промо-кампания нового альбома — два сингла «F-F-F-Falling» и «Madness». Альбом «Into» (2001), записанный и сведённый в Стокгольме, квартет издает уже под покровительством нового лейбла Playground Music Scandinavia. Наибольший успех имел сингл «F-F-F-Falling», активно зазвучавший в европейском радиоэфире. В Финляндии сингл моментально покорил поп-чарт и провёл на верхней строке три месяца, получив платиновый сертификат. Альбом «Into», также добравшийся до первой позиции, стал на родине дважды платиновым, а группа отправилась в тур в его поддержку. Первыми в гастрольном графике значились Швеция, Дания и Норвегия, а по возвращении в Финляндию Rasmus не пропустили ни одного фестиваля в своей стране. К концу года «Into» издается по всей Скандинавии и в Германии, а квартет гастролирует на разогреве у HIM и Roxette по северной Европе. По итогам 2001 года Rasmus получает премию Emmy в четырёх основных номинациях: «группа года», «альбом года» («Into»), «сингл года» («F-f-f-falling») и «лучшая рок-группа». Через два года группа записала пятый студийный альбом «Dead Letters», выпущенный в Европе в 2003 году, а в 2004-м переизданный в Соединённых Штатах лейблом Universal. На вопрос о названии («Мертвые письма») вокалист Лаури ответил: «Каждая песня — это письмо к кому-нибудь. Это может быть извинение, признание или крик о помощи». Rasmus образца 2003 года играют рок, тяготеющий к альтернативному металлу, и традиционно делают упор на мелодичность, снабжая каждый трек запоминающимся припевом. «Этот альбом более грустный, угрюмый, но и более мечтательный, чем все, что мы делали раньше», — таково мнение басиста Эйро. Диск «Dead Letters» успешно боролся за слушателя не только на родине, но и лидировал в чартах Германии, Австрии и Швейцарии. В ноябре 2003 года на церемонии MTV Europe Music Awards группа получает приз в номинации «Лучший скандинавский исполнитель». Альбом «Dead Letters» считается самым коммерчески успешным в истории группы. Этому немало поспособствовало MTV, в эфире которого клип «In The Shadows», получивший награду «Лучшая зарубежная песня» на Swedish Hit Music Awards, ротировался в течение нескольких лет. Альбом собрал большое количество разнообразных наград и премий, в том числе и премию за лучший клип от русского MTV. На церемонии награждения в Москве, которое состоялось 16 октября 2004 года, Rasmus исполнили свой хит «In The Shadows». В 2004 Лаури Илонен принял участие в качестве вокалиста в альбоме группы Apocalyptica. В 2005 году Rasmus отправляются в тур по Японии, а, вернувшись, тут же переместились в Стокгольм, где записали свой следующий альбом под названием «Hide From The Sun», который поступил на прилавки магазинов 12 сентября 2005 года, вслед за ним группа совершила масштабное турне по странам Европы и Америки. В 2005 году The Rasmus выпускают DVD «Live Letters», включающий концерт группы в Швейцарии, 7 видеоклипов и доп.материалы (фотографии, съемки клипов, интервью). В апреле 2006 группа выпустила часовой документальный фильм о своем пути на музыкальный олимп на финском языке «The Rasmus: Dokumennti». Так же была выпущена версия с английскими субтитрами. 12 Апреля 2008 года у солиста Лаури Илонена и Паулы Весала (солистка финской группы PMMP) родился сын, которого назвали Julius Kristian Ylönen. Из-за этого релиз альбома «Black Roses» был отложен и состоялся в Финляндии 24 сентября, а интернациональная дата выхода — 29 сентября. Living in a world without you — стал первым синглом с альбома и зазвучал со всех радиостанций 25 июля. Релиз сингла состоялся 15 сентября. Dynasty Тур 2008 начался в Seinдjoki Rytmikorjaamolta 3-го октября и закончился в Хельсинки, в Доме Культуры, 12-го. The Rasmus, Mariko и Von Hertzen Brothers посетили восемь городов в общем туре. В 2009 году в рамках фестивального тура «Монстры рока» The Rasmus посетили 7 городов России, выступая на одной сцене с такими исполнителями, как Kingdom Come, Alice Cooper, The Scorpions. 23 ноября 2009 года группа выпустила сборник лучших хитов «Best Of 2001—2009», в который вошли самые известные песни группы, а также в качестве бонуса — новая песня «October & April», записанная совместно с солисткой Nightwish Anette Olzon. По словам вокалиста группы, The Rasmus соберутся в июле 2011 года для записи нового альбома. Новый альбом группы, названный «The Rasmus», увидел свет в апреле 2012 года. Скрыть...
Популярные аккорды The Rasmus:
алфавиту | просмотрам | случайно
  • Intro
    G|------------------------------------------------------------------|
    D|-0--0--0-2-0----------------------------7-------------------------|
    A|------------4-0----------------0-2--4--5-5-4-0--------------------|
    E|----------------2--2--2-1p0--2------------------2-2-4-4-5-5-------|
    
    G|------------------------------------------------------------------|
    D|-0--0--0-2-0----------------------------7-------------------------|
    A|------------4-0----------------0-2--4--5-5-4-0-----------7-5-4-0--|
    E|----------------2--2--2-1p0--2------------------2--4--5-----------|
    
    G|------------------------------------------------------------------|
    D|-0--0--0-2-0----------------------------7-------------------------|
    A|------------4-0----------------0-2--4--5-5-4-0--------------------|
    E|----------------2--2--2-1p0--2------------------2--2--2-0-1-2-----|
    
    Verse…
  • Intro
    
    E-0-0-------------------------|
    A-0-0-7777-9999-7777----------|
    D-0-0-------------------------|
    G-----------------------------|
    B-----------------------------|
    E-----------------------------|x 3
    
    E-0-0------0-0----------------|
    A-0-0-7777-0-0-7777-----------|
    D-0-0------0-0----------------|
    G-----------------------------|
    B-----------------------------|
    E-----------------------------|
    
    E-0-0-------------------------|
    A-0-0-7777-9999-7777----------|
    D-0-0-------------------------|
    G-----------------------------|
    B-----------------------------|
    E-----------------------------|x…
  • -Intro- Clean Guitar
                                            
    ||-7---5---3---2---|-----7---5---3---2-----|
    ||---8---7---5---3/|-(8)---8---7---5---3/--|
    ||-----------------|-----------------------|
    ||-----------------|-----------------------|
    ||-----------------|-----------------------|
    ||-----------------|-----------------------|…
  • Intro 1(0:00)
    |-----------------------------------------------------------------|
    |-----------------------------------------------------------------|
    |-----------------------------------------------------------------|
    |-2-2-4p2-2-5p2-4p2-2--2-2-2-2-------------------2-2-(2222)-------|
    |-------------------------------2-2-5p2-2-5p-2-2------------------|
    |-----------------------------------------------------------------|
    
    |-----------------------------------------------------------------|
    |-----------------------------------------------------------------|
    |-----------------------------------------------------------------|
    |-2-2-4p2-2-5p2-4p2-2--2-2-2-2------------------------------------|
    |-------------------------------2-2-5p2-2-5p-2-2-9/4--------------|
    |------------------------------------------------7/2--------------|
    
    Intro…
  • Tuning: Standard (E A D G B  E)
    
    Piano Intro: Transcribed for guitar
    
    E|------------------------------||
    B|---------2------2--4--6-------||
    G|------------3-----------------||
    D|-1--4--3----------------------||
    A|------------------------------||
    E|------------------------------||
    
    Guitar…
  • ------------------------------------------------------------|
    -3-3-3-3-|-3-3-3-3-|-3-3-3-3-|-5-5-5-5b-|-------------------|
    ---------|---------|---------|----------|-------------------|
    ---------|---------|---------|----------|-------------------|
    Intro…
  • Intro/Riff
    G|--------------------------------------|
    D|77777777--------6666666-6-666666------|
    A|--------44444444-------6-6------------| x4
    E|--------------------------------------|
    
    Verse part 1
    G|--------------------------------------|
    D|--------------------------------------|
    A|4------40-0-----0--------22-----------|…
  • Dm               Bb               C               Gm
    I wish you were here tonight with me to see the northern lights
    
    Dm               Bb               C               Gm
    I wish you were here tonight with me
    
    Dm…
  • Sequence:
    
    Intro X2
    verse 1
    Chorus
    Verse 1
    Chorus
    Verse 2
    Chorus
    Ending
    
    Intro:
    
    Guitar 1
    E|------------------------------------------------------------|
    B|------------------------------------------------------------|
    G|------------------------------------------------------------|
    D|x-x-x-x---4--4-4--2-2-2--2-2-2-2-----4--4-4--2-2-2--2-2-2-2-|
    A|x-x-x-x---4--4-4--2-2-2--2-2-2-2-----4--4-4--2-2-2--2-2-2-2-|
    E|x-x-x-x---4--4-4--2-2-2--2-2-2-2-----4--4-4--2-2-2--2-2-2-2-|
    
    Guitar…
  • Intro
    
    E|-------------------------------------------------------------------|
    B|-------------------------------------------------------------------|
    G|--------------7-7-----------------4-4-4-4-------------7-7----------|
    D|--4-5-5-----5-7-7-----3-4-4-----4-4-4-4-4---5-5-----5-7-7----3-4-4-|
    A|--4-5-5-----5-5-5-----3-4-4-----4-2-2-2-2---5-5-----5-5-5----3-4-4-|
    E|--2-3-3-----3---------1-2-2-----2-----------3-3-----3--------1-2-2-|
    
    E|------------------------------------------------|
    B|------------------------------------------------|
    G|----4-4--------------7-7----------------4-4-4-4-|
    D|--4-4-4---4-5-5----5-7-7----3-4-4-----4-4-4-4-4-|
    A|--4-2-2---4-5-5----5-5-5----3-4-4-----4-2-2-2-2-|
    E|--2-------2-3-3----3--------1-2-2-----2---------|
    
    verse…
  • Intro: Dm Bb F C
    
    Verse 1:
    Dm                        Bb
    Have I been away to long? Did I miss all the action?
    F                                      C
    What happened to the neigbours and the girl next door?
    Dm…
  • G C
    She drinks the blood of the dinosaurs
    G
    To get her powers back
    C
    To make her boyfriend understand
    G C
    That things are not what they used to be
    G
    She doesn't have a plan
    C
    To make her boyfriend understand
    
    G C
    Through…
  • Tuning:standard
    
         Intro 
    E|------------------------------------------------------------------------| 
    B|---4/9--7--8--9--7--4-------4/9--7--8--9--7--4--------------------| 
    G|------------------------------------------------------------------------|…
  • Intro:
    
    --Part 1--
    E|-------------------------------------------||
    B|-------------------------------------------|| Play this bar 3x
    G|--------------6---6-----7---6--------------||
    D|----7---7---7---7-----7---7-----7--6--7----||
    A|--9---9------------------------------------||
    E|-------------------------------------------||
    
    E|-------------------------------------------||
    B|-------------------------------------------||…
  • INTRO:
    Am  Em  Am  Em
    
    VERSE 1:
    Am
    Once upon a time we had a lot to fight for
    Em  
    We had a dream, we had a plan
    Am
    Sparks in the air, we spread a lot of envy
    Em  
    Didn't have to care once upon a time
    
    Am
    Remember…
  • 1. Verse:
           Am                  D             Bm       Em
    I go liquid when you come around and I know
           Am                     D          Bm       Em  
    I go solid but don't get me wrong, yes I go…
  • INTRO
    e|-3---1-3-1-1--------------3---|
    H|---4---------4-3-4--4-3-1-----|
    G|------------------------------| 
    D|------------------------------|
    A|-------------------------- ---|
    E|---------------------------- -|
    
    e|--------3-|
    H|--4-3-1---|
    G|----------|
    D|----------|
    
    
    
    
    Ab5…
  • Intro:
    C#7 D E F#m A Bm A E/G# x2
    
    Verse 1:
    F#m           E           D
    I don't go to school every monday
    F#m         E         D
    I've got my reason to sleep
    F#m         E        D      E
    Don't you tell me how I…
  • INTRO: (this intro goes clean)
    e|---5-------5-------5-------5-----|
    H|-----5-6-----5-6-----3-5-----3-5-|
    G|-7-------7-------5-------5-------|
    D|---------------------------------|
    A|---------------------------------|
    E|---------------------------------|…
  • A                                                       D
    I can't deny the fact that you know me better than i do
    it doesn't matter 'cos i know that you that i'm a fool
    A
    better than best
    but if you only tell me that…
  • Riff A
    E|-------------------------|
    B|-------------------------|
    G|-------------------------|
    D|-------------------------|
    A|-------------------------|
    E|-4-4-4-4-4-4-4---9-9-9-9-|
    
    Riff B
    E|--------------------------------------------------------------|
    B|--------------------------------------------------------------|
    G|--------------------------------------------------------------|
    D|--------------------------------------------------------------|
    A|--------------------------------------------------------------|
    E|-4--4-4--4-4-4--4--4-4--4-4-4--9--9-9--9-9--11-11-9-9-8-8-5-5-|
    
    Riff…
  • Verse
    pattern A
    G|-------------------------------------------------
    D|-------------------------------------------------
    A|-------------------------------------------------
    E|-12⁄---12⁄---12⁄---12⁄---12⁄---12⁄---12⁄---12⁄0--
    
    pattern…
  • Standard tuning                                               G6 = 355400
    Capo on first fret!
    
    INTRO
       Bm                        G6
    e|-----4/5-3-2------4/5-3-2----0-2----0-2----|
    B|---3------------3----------3-----3------3--|
    G|-4------------4----------------------------|…
  • Intro: G#m E H F# > 4x
           E
    
    G#m   D#m                 E                     H 
    Girl,     you lived your life like a sleeping swan
         C#m           D#       G#m
    Your time has come    to go deeper
    Girl, your final journey…
  • Intro:
    E|-----------------------------------------------------------------------------|
    B|-----------------------------------------------------------------------------|
    G|-----------------------------------------------------------------------------|
    D|-----------------------------------------------------------------------------|
    A|-2-2--2-5-4-5-2-2-5-4-5--0-0--0-5-4-5-0-0-5-4-5/-7-7--7-10-9-10-7-7-10-9-10/-|
    E|-----------------------------------------------------------------------------|
    
    E|------------------------|
    B|------------------------|
    G|------------------------|
    D|------------------------|
    A|-2-2--2-5-4-5-2-2-5-4-5-|
    E|------------------------|
    
    Verse:
    E|----------------------------------------------------------------|
    B|----------------------------------------------------------------|
    G|----------------------------------------------------------------|
    D|----------------------------------------------------------------|
    A|-9-9--9-9-9-9--12-12--12-12-12-12--7-7--7-7-7-7-7--9-9--9-9-9-9-|
    E|-7-7--7-7-7-7--10-10--10-10-10-10--5-5--5-5-5-5-5--7-7--7-7-7-7-|
    ..........................P.M......................................
    
    E|--------------------------------------------------------------|
    B|--------------------------------------------------------------|
    G|--------------------------------------------------------------|
    D|--------------------------------------------------------------|
    A|-9-9--9-9-9-9--12-12--12-12-12-12--1111-11111111-9-9--9-9-9-9-|
    E|-7-7--7-7-7-7--10-10--10-10-10-10--9-9--9-9-9-9--7-7--7-7-7-7-|
    ..........................P.M....................................
    
    E|----------------------------------------------------------------|
    B|----------------------------------------------------------------|
    G|----------------------------------------------------------------|
    D|----------------------------------------------------------------|
    A|-9-9--9-9-9-9--12-12--12-12-12-12--7-7--7-7-7-7-7--9-9--9-9-9-9-|
    E|-7-7--7-7-7-7--10-10--10-10-10-10--5-5--5-5-5-5-5--7-7--7-7-7-7-|
    .........................P.M.......................................
    
    E|---------------------------------------------------------------|
    B|---------------------------------------------------------------|
    G|---------------------------------------------------------------|
    D|---------------------------------------------------------------|
    A|-9-9--9-9-9-9--12-12--12-12-12-12--1111-11111111-1111-11111111-|
    E|-7-7--7-7-7-7--10-10--10-10-10-10--9-9--9-9-9-9--9-9--9-9-9-9--|
    .........................P.M.....................................
    
    Prechorus:
    E|--------|
    B|--------|
    G|--------|
    D|-4---12-|
    A|-4---12-|
    E|-2---10-|
    
    Chorus:
    E|------------|
    B|------------|
    G|------------|
    D|-9--4-2-5-7-|
    A|-9--4-2-5-7-|x2
    E|-7--2-0-3-5-|
    
    Then:x2
    E|-----------------------------------------------------------------------------|
    B|-----------------------------------------------------------------------------|
    G|-----------------------------------------------------------------------------|
    D|-----------------------------------------------------------------------------|
    A|-2-2--2-5-4-5-2-2-5-4-5--0-0--0-5-4-5-0-0-5-4-5/-7-7--7-10-9-10-7-7-10-9-10/-|
    E|-----------------------------------------------------------------------------|
    
    E|------------------------|
    B|------------------------|
    G|------------------------|
    D|------------------------|
    A|-2-2--2-5-4-5-2-2-5-4-5-|
    E|------------------------|
    
    Verse…
  • Intro:
    ........................P.M................................
    E|--------------------------------------------------------|
    B|--------------------------------------------------------|
    G|--------------------------------------------------------|
    D|-----------------------------0-0-0-0------------0-------|
    A|-------1-1-x-x-4-4-4-4-3-1------------3-3-3-1-3---3-1---|
    E|-3-3-0---------------------3----------------------------|
    
    E|------------------|
    B|------------------|
    G|------------------|
    D|------------7-5-3-|
    A|-------1-1--5-3-1-|
    E|-3-3-0------------|
    
    Then:
    E|--------------------------------------------------------|
    B|--------------------------------------------------------|
    G|--------------------------------------------------------|
    D|-----------------------------0-0-0-0------------0-------|
    A|-------1-1-x-x-4-4-4-4-3-1------------3-3-3-1-3---3-1---|
    E|-3-3-0---------------------3----------------------------|
    
    Verse:
    ....................................P.M......................................
    E|---------------------------------------------------------------------------|
    B|-----10-----10-----11-----10-----10----------------------------------------|
    G|-7-7----7-7----7-7----7-7----7-7----7------10-----10---------12-----12-----|
    D|---------------------------------------8-8----8-8----8-8-8-8----8-8----8-8-|
    A|---------------------------------------------------------------------------|
    E|---------------------------------------------------------------------------|
    
    Prechorus:
    E|-----------------------------|
    B|-----------------------------|
    G|-----------------------------|
    D|-5-5-7^-5-5-7^-7-7-7^-7-7-7^-|
    A|-5-5----5-5----7-7----7-7----|
    E|-3-3----3-3----5-5----5-5----|
    
    Then:
    ................................................P.M.......................................
    E|----------------------------------------------------------------------------------------|
    B|----------------------------------------------------------------------------------------|
    G|--------------------------------------------------7-x-7-x-7/9-x-x-9-x-x-9/10-x-10-x-10--|
    D|-5-x-5-x-5/7-x-7-x-7/8-x-8-x-8-8-x-8-x-8/10-10-10-7-x-7-x-7/9-x-x-9-x-x-9/10-x-10-x-10--|
    A|-5-x-5-x-5/7-x-7-x-7/8-x-8-x-8-8-x-8-x-8/10-10-10-5-x-5-x-5/7-x-x-7-x-x-7/8--x-8--x-8---|
    E|-3-x-3-x-3/5-x-5-x-5/6-x-6-x-6-6-x-6-x-6/8-x-8-x-8-0-0-0-0-0-0-0-0-0-0-0---0--0---------|
    
    
    Chorus:
    E|---------------------------------------------------------------|
    B|---------------------------------------------------------------|
    G|---------------------------------------------------------------|
    D|-5-5-5--5-5-5--2-2-2--2-2-2--3-3-3--3-3-3--3-3-3--2-2-2--3-3-3-|
    A|-5-5-5--5-5-5--2-2-2--2-2-2--3-3-3--3-3-3--3-3-3--2-2-2--3-3-3-|
    E|-3-3-3--3-3-3--0-0-0--0-0-0--1-1-1--1-1-1--1-1-1--0-0-0--1-1-1-|
    
    Then:
    E|--------------------------------------------------------|
    B|--------------------------------------------------------|
    G|--------------------------------------------------------|
    D|-----------------------------0-0-0-0------------0-------|
    A|-------1-1-x-x-4-4-4-4-3-1------------3-3-3-1-3---3-1---|x2
    E|-3-3-0---------------------3----------------------------|
    
    Verse…
  • Intro: C C Am F
    
           F             G
    Like a stone I'll go down
            Em        Am
    I'm too far to be found
           F             G
    Got no place for the storm
            F           G
    All the love that I found…
  • Intro:
    
    Em7 - Bm7 . Play over and over again. This tab is played at the same time=
    
    E|---------------------------------------------------------------------------|
    B|---------------------------------------------------------------------------|
    G|---------------7--------4-----------------7-----4--------------------4-----|
    D|---5--4--5-------------------5--4--5---------------------------7------4--5-|
    A|-------------------------------------------------------5--4--5-------------|
    E|---------------------------------------------------------------------------|
    
    Verse…
  • Am 
    
    I don t know who I am
    F
    Am I even human?
    G   E
    Every night I sell my soul
    
    Am
    I forgot your birthday
    F
    And I m dressed in rags
    G   D 
    I shouldn t drink, I ll lose control
    E
    And I know…
    
    chorus
    F
    I…
  • Hm
    Tonight we escape
    Em           F#
    Just you and me
                   Hm
    We`ll find our peace
    Em                  F#
    Somewhere across the seas
    
    Hm
    Enough of the fright
    A
    Enough of the fuss
    G                   F#
    I`ll be awake…
  • Standard tunning
    
    Am                                        Em
    I have got a heavier heart I must give it away
                       F       C     G
    Maybe it's not too late to regret now
    Am
    I have gone into the deepest…
  • Standard Tuning
    EADGBE
    
    Em:  O22O33
    D:   XXO232
    C:   332O1O
    B7:  021201
    
    Intro: Em D Em D
    
    
    Em                D               Em          D
    It is preventing tomorrow it's so tough
    Em              D…
  • Intro:  Am C F C E (2x)
    
    Verse 1:
    Am               C                        F               C   E
    Time to laughter but you know the answer. Who will be the one.
    Am                  C                  F…
  • G
    Is there anybody who can help me sing?
    G D G Em
    Don't let me down I refuse to believe
    G D G Em
    that you're outdated by your friends ooooooooh!
    G D G Em G D G Em
    Don't let me down I refuse to believe you oooooooooooooh!
    
    G…
  • Bm              A
    Fear is like a tree
                Bm             A
    That grows inside of my silently
         Bm              A
    And you could be my blood
              Bm           A
    And be a part of me secretly…
  • Em                       G
    I see you try to avoid me.
                          Am
    You ain't so friendly cold like ice,
                   D
    I can see what that means.
    
    Em
    Let me explain first, why I haven't been around.
    G
    I'll…
  • The C-Am transfer chord looks like this:
    e|--0-----------------
    b|--1------------------
    g|--0-----------------
    d|--0-----------------
    a|--2-----------------
    E|--------------------
    
    Intro/Interlude: (intro is a bit…
  • Intro
    
    E-------------------------|
    B-------------------------|
    G--------------------6----|
    D---4---6-7--4-7---4------|
    A-4---4-----4----4--------|
    E-------------------------|x 8
    
    Verse Enfolding your love...
    
    E-9------9----9---|
    B---10-----10---9-|
    G-----------------|
    D-----------------|
    A-----------------|
    E-----------------|…
  • Вступление: Dm  Am  Dm  Am
    
    Dm                      Am
    She was like April sky, sunrise in her eyes
    Dm                            C
    Child of light, shining star, fire in her heart
    Gm                           Dm
    Brightest…
  • G- - - - - - - - - - - - - - -
    D- - - - - - - - - - - - - - -
    A- - - - -0-0- - - -0- - - - -	4x
    E- -0-0- - - -0-0- - - - - - -
    
    G- - - - - - - - - - - - - - -
    D- - - - - - - - - - - - - - -
    A- - - - - -0- - - - - - - - -	2x
    E-…
  • e|--3-3-2-0---------------3-2---| 
    B|----------3---3-5-------5-4---| 
    G|------------4-----0-2-4-5-4---| x2 
    D|------------------------5-4---| 
    A|------------------------3-2---| 
    E|-0----------------------3-2---|…
  • Tuning: Standard
    
    Sim        La
    close my eyes
    Fa#m         Sim        La  Sol
    lay down and sleep away
                Mim     Do#7  La    
    there's no return
    Sim       La
    it's my mistake
    Fa#m               Sim   La…
  • Dm            C
    Fate lies ahead
                   Bb        A
    Like the sun will rise
              Dm                     C
    The light has been gone
                 Bb                       A
    far too long from your eyes…
  • A Bsus
    I can't believe that it's over  
    A 
    I lost this one  
    Bsus
    Tonight I'll run free  
    A Bsus
    I wish I had someone to guide me  
    A 
    And pull me up  
    Bsus
    'cause the lights can't find me  
    
    A Bsus
    Stranger…
  • Intro (0:00)
    
    G# C# C# 
    G# Cm Fm C# 
    G# Cm Fm C#
    
    
    
    Verse (0:22)
    
    G#                           Fm  Eb
    You get no kick out of champagne
    G#                                   Fm     Eb
    Things make you sick by staying…
  • Intro:
                                                               + o + o +      o
    |--------------------------------------------------------------------------|
    |--------------------------------------------------------------------------|
    |--------------------------------------------------------------------------|
    |-------------------------------------0------------------------7-x-9-------|
    |--0--7--5-x-7-7-x-x-7-x-5-x-0--x-0h2-------7--5-x-7-7-x-x-9-x-------------|
    |----------------------------------------0---------------------------------|
    
    Riff:…
  • Intro  Em   C   Am   D  
     
     Em  
    It's hard to believe that it came to this, 
    You paralysed my body with a poison kiss, 
     C  
    For 40 days and nights I was chained to your bed, 
    You thought that was the end of the story,…
  • Tuning: Standard (EADGBe)
    
    There are two guitars in this, so I'll tab 'em both out.
    
    Intro/Verse:
    Guitar 1 (clean):    Guitar 2 (clean, with some sort of effect I think):
    e|-------|           e|----------------------------------------------------|
    B|-9-10--|…
  • Intro:
    E|-----------------------------------|
    B|-----------------------------------|
    G|-------------------5/7-7-7-7-7-7-7-|
    D|-2-4---2-4---2-4---5/7-7-7-7-7-7-7-|x2
    A|-2-4---2-4---2-4---3/5-5-5-5-5-5-5-|
    E|-2-2---2-2---2-2-------------------|
    
    Then:x2
    E|-----------------------------------|…
  • Intro: D5  E7  A7 Dm
           Bb5 C5  A7 Dm
    
    Bm         F#m         G5                         G
    Tomorrow's taking me away from you like a jealous lover
    
    Bm        F#m            G5                   G…
  • C                G
    Wake up the world is yours 
    Am            F
    Get lost, find a new course 
    C                  G
    I'm gone, it's easier to clouse the door 
    Dm                  C                     G
    I thought I loved…
  • Intro:
    
    A5, F5, E5 x2
    
    Verse:
    A5                       F5         E5
    Holding my breath as I walk to your garden
                     F5
    Everything seems so abandoned
    A5                       F5         E5
    Roses have…
  • Bm               A
    Darling stop confusing me
               E               Bm
    With your wishful thinking
                    A
    Hopeful embraces
               E 
    Don't you understand? 
    Bm                        A
    I have to…
  • Standard tuning^^ 
    
    Intro:
    Play for the intro just AM and do it...with 
    A for the bass and the 3 high ((G/H/high E)
    and then dark E (but still grapping AM) and the 3 highs then (G/H/E)
    
    
    Am…
  • Bm                    C#
    Make me blind, cover my eyes
                  F#
    You can do what you want
    Bm                          C#
    I'm paralyzed by the perfect mood
                         F#
    When we're dancing with blindfolds…
  • Intro:
    E|---------------------------|
    B|---------------------------|
    G|-7-7-7-6-4--4-9-9-7-7--7-6-|
    D|-7-7-7-6-4--4-9-9-7-7--7-6-|x2
    A|-5-5-5-4-2--2-7-7-5-5--5-4-|
    E|---------------------------|
    
    E|---------------------------|
    B|---------------------------|
    G|---------------------------|
    D|---------------------------|x2
    A|-7-7-7-6-4--4-9-9-7-7--7-6-|
    E|-5-5-5-4-2--2-7-7-5-5--5-4-|
    
    Verse:
    ..........................................P.M.......................................
    E|---------------------------------------------------------------------------------|
    B|---------------------------------------------------------------------------------|
    G|---------------------------------------------------------------------------------|
    D|-7-7-7-7-7--7-7-7--7--7-7-7-7----------------------------------------------------|x2
    A|-5-5-5-5-5--5-5-5--5--5-5-5-5--5-5-5-5--5-5-5--5--5--5-5-5-5-5--5-5/7-7-7-7--7-7-|
    E|-------------------------------3-3-3-3--3-3-3--3--3--3-3-3-3-3--3-3/5-5-5-5--5-5-|
    
    Chorus:
    E|-------------------------------------------|
    B|-------------------------------------------|
    D|-------------------------------------------|
    G|-6-6-6------6-6-6------6-6-6-------2-2-4-4-|
    A|-6-6-6-5-4--6-6-6-5-4--6-6-6-5-4-2-2-2-4-4-|x2
    E|-4-4-4------4-4-4------4-4-4-------0-0-2-2-|
    
    Then:
    E|---------------------------|
    B|---------------------------|
    G|-7-7-7-6-4--4-9-9-7-7--7-6-|
    D|-7-7-7-6-4--4-9-9-7-7--7-6-|x2
    A|-5-5-5-4-2--2-7-7-5-5--5-4-|
    E|---------------------------|
    
    E|---------------------------|
    B|---------------------------|
    G|---------------------------|
    D|---------------------------|x2
    A|-7-7-7-6-4--4-9-9-7-7--7-6-|
    E|-5-5-5-4-2--2-7-7-5-5--5-4-|
    
    Verse…
  • Intro: Am F Cm Ab
    
    
    Am                Asus2       Am
      When you found me on the street
    
    Asus2       Am                 
      Did you think you rescued me
    
    F                           Dsus2
    Bet you thought without…
  • Intro
    
    E|----------------|
    B|----------------|
    G|----------------|
    D|--4--4--4--4--2-|
    A|--4--4--4--4--2-|x3
    E|--2--2--2--2--0-|
    
    
    After Verse:
    E|----------------|
    B|----------------|
    G|----------------|
    D|--4--4--4--4--2-|
    A|--4--4--4--4--2-|x4
    E|--2--2--2--2--0-|
    
    
    Chorus:
    E|-------------------------------------------------------------------------|
    B|-------------------------------------------------------------------------|
    G|-5-5-5-5-5-5-5-5-5-5-5-5-5-5-5-5-----------------------------------------|
    D|-5-5-5-5-5-5-5-5-4-4-4-4-4-4-4-4-x-x-2-2-2-x-x-2-2-2-x-x-2-2-2-x-x-2-2-2-|
    A|-3-3-3-3-3-3-3-3-3-3-3-3-3-3-3-3-x-x-2-2-2-x-x-2-2-2-x-x-2-2-2-x-x-2-2-2-|x2
    E|---------------------------------x-x-0-0-0-x-x-0-0-0-x-x-0-0-0-x-x-0-0-0-|
    
    E|-------------------|
    B|-------------------|
    G|-5~~---6~~---4-5-4-|
    D|-5~~---6~~---4-5-4-|
    A|-3~~---4~~---2-3-2-|
    E|-------------------|
    
    Verse…
  • Tuning: Standard (EADGBe)
    
    Intro/Verse (All palm muted):
    e|---------------------------------------------------------------|
    B|---------------------------------------------------------------|
    G|-----------------------------------------444222----------------|
    D|-10-x12-4-x12-9-x12-2-x12-1-x12-4-x12-222------111222----------|
    A|-----------------------------------------------------222-------|
    E|--------------------------------------------------------333222-|
    
    Just…
  • Cm
    Life is like a boat in a bottle 
                                B
    Try to sail you can’t with no air 
    G#7
    Day by day it only gets harder 
                            G
    Try to scream but nobody cares 
    
    Through the glass you see…
  • No capo
    
    Bm                             F#m
    If you don't wanna call it home
    Bm                             F#m
    Is it better to be on your own?
    Bm                             F#m
    Is it better to start over new?
    Bm…
  • Intro (0:00)
    
       Bm
    e--------------------------|
    b--------------------------|
    g--16-16-16-15--16b-16-15--|
    d--16-16-16-14--16b-16-14--|
    a--------------------------|
    e--------------------------|
    
    
    
    Verse (0:08)
    
    Bm
    It's…
  • Piano Intro:
    e|-9---9---9---10----|
    B|---7---7---7----7--|
    G|-------------------|
    D|-------------------| x2
    A|-------------------|
    E|-------------------|
    
    
    Main Riff (Keep the piano intro going):
    e|---------------------------------|
    B|---------------------------------|
    G|---------------------------------|
    D|-4---------------4---------------|…
  • Tuning : Standard                       
    
    Intro :
    
    Part I
    |------------|8x
    |------------|
    |------------|
    |-2----------|
    |-------0----|
    |---0-3---0--|
    
    Part II 
    |-------------|4x
    |-------------|
    |-x9-8/9xxxxx-|
    |-x9-8/9xxxxx-|
    |----6/7------|
    |-------------|
    
    Verse
    
    |--------------------------------------------------|
    |--------------------------------------------------|
    |4~~~~~~~~~~~~~~~~~~~~~~~~~~~~~~~~~~~~~~~~~~/9~\4~~|
    |--------------------------------------------------|
    |--------------------------------------------------|
    |--------------------------------------------------|…
  • Tuning: Standard
    
    
    Verse:
    e|----------------------------3----------------------------------------------|
    B|-------5--------6--------------------5-------------------------------------|
    G|----5--------5-----5-4-2-0-------------------------------------------------|
    D|----------------------------------5----------------------------------------|…
  • INTRO
    
    | G | G |
    | G | G G/F# | Bm | Bm |
    | G | G G/F# | Bm | Bm |
    
    
    VERSE
    
    G                                                           Bm
    You got me in this situation, you got me backed against the wall
    G…
  • Tuning : Standard                             
    
    INTRO:
    
    F  A#  F  A#  F  A#  C
    
    
    If you have two guitars , one guitar can play the tones from the tab 
    and the other one plays powerchords 
    
      
       F5      A#5…
  • Tuning : Standard   
    
    Intro
       B5     E5   F#5    E5  4x  B5
    |---------------------------|-----------------|
    |---------------------------|-----------------|
    |--4-4-4--------------------|-4~~~~~~~~~~~~~~~|
    |--4-4-4--2-2--4-4-4--2-2---|-4~~verse…
  • Intro goes something like this:
    
    Cm Fm G Cm Fm Cm G G G G (its really easy to pick them right ._.)
    
    Verse1:
    
    Cm            Fm 
    If I could be the king of this planet
    G                   Cm
    I would order some more.
    
    Cm…
  • Intro: (piano)
    
    Verse:(bass and piano)
    Where are those happy times - they seem so hard to find.
    I try to reach for you but you have closed your mind.
    Whatever happened to our love?
    I wish I understood.
    It used to…
  • Intro
    E|----------------|----------------|
    B|----------------|----------------|
    G|----------7-6-5-|-5--5--5--5-5-7-|
    D|-2--2-2-2-7-6-5-|-5--5--5--5-5-7-|x4
    A|-2--2-2-2-5-4-3-|-3--3--3--3-3-5-|
    E|-0--0-0-0-------|----------------|
    
    Verse:
    E|------------------|----------------|
    B|------------------|----------------|
    G|---9--7--6--5--5--|----------------|
    D|---9--7--6--5--5--|-5--5--5--7-----|
    A|-7-7--5--4--3--3--|-3--3--3--5-----|x4
    G|------------------|----------------|…
  • Verse:
    Bm                           
    In my mind, I always thought I was a different kind
    Bm
    'Cause back in time I used to think that everyone was blind
    Bm
    They always call me as a loser - zero
    Bm
    When I look into…
  • Standard Tuning                  
    
    Intro :
    e|----------------|
    H|----------------|
    G|-11-9-7-6-(2)---|
    D|-11-9-7-6-(2)-4-|
    A|-9--7-5-4--0--4-|
    E|--------------2-|
    
    Verse :
    e|-----------------------------------|…
  • Verses: The same chords like the chorus (G C Am D Bm C Am D G)
    
    Chorus:
    
    G             C
    Dont shut the door
    
    Am             D
    Dont leave me here darling
    Bm             C
    in the pooring rain 
             Am…
  • F 
    as you might know, my father was a rich man, 
    C                                           F    C 
    his father was rich, I'm gonna be a rich man too, oh yeah! 
    F                           C 
    Right now my job is to…
  • INTRO (00:01 min. ) 
    
       G  D  Eb   G  D  C    G  D  Eb
    e|-3--2--3----3--2--0----3--2--3------------------|
    H|-0--3--4----0--3--1----0--3--4------------------|
    G|-0--2--3----0--2--0----0--2--3--3-2-0-2-0---0-2-|
    D|-0--0-------0--0--2----0--0---------------4-----|
    A|-2----------2-----3----2------------------------|
    E|-3----------3----------3------------------------|
    
    I…
  • Intro/Chorus/Outro:
    E- - - - - - - - - - - - - - - - - - - - - - -|
    H- - -2-0- - - - - - - - -3- -3-2-0- - - - - -|
    G- - - - - -2- -2-1- - - - - - - - - - - - - -|
    D- - - - - - - - - - - -4- - - - - - - - - - -|		2x
    A- -…
  • Tuning: Standard
    
    Intro:(clean)
    (keyboard transcription for guitar)
    e|---------------------------------------------------------------------------------|
    B|---------------------------------------------------------------------------------|
    G|---------------------------------------------------------------------------------|
    D|-9-9-9-9-9-9-8-8-----------------------------------------------------------------|2x
    A|---------------------------------------------------------------------------------|
    E|---------------------------------------------------------------------------------|
    
    Verse:…
  • e|-------------------------|
    B|12-10-9-7h9-7------------|
    G|-------------------------| x15
    D|-------------------------|
    A|-------------------------|
    E|-------------------------|
    
    e|-------------------------|
    B|12-9-10-7-5h7-0----------|
    G|-------------------------|…
  • Intro:
    --------------P.M.--------------------
    E|------------------------------------|
    B|------------------------------------|
    G|------------------------------------|x4
    D|------------------------------------|
    A|---x-x-5-5-x-x-6-6-x-x-8-8-9--------|
    E|-3----------------------------------|
    
    Then:
    E|------------------------------------|
    B|------------------------------------|
    G|-------7-7-----8-8-----10-10-11-----|x4
    D|-5-x-x-7-7-x-x-8-8-x-x-10-10-11-----|
    A|-5-x-x-5-5-x-x-6-6-x-x-8--8--9------|
    E|-3----------------------------------|
    
    Verse:
    
    This…
  • Intro:
    E|------------------------|
    B|------------------------|
    G|------------------------|
    D|------------------------|x4
    A|---7-7---------7-7------|
    E|-0-----7-4-0-0-----7-4~-|
    
    Verse:
                   ........P.M..........
    E|-----------------------------------|
    B|-----------------------------------|
    G|-----------------------------------|
    D|-7~-5~-3~-2~-----------------------|
    A|-7~-5~-3~-2~---7-7---------7-7-----|x4
    E|-5~-3~-1~-0~-0-----7-4-0-0-----7-4-|
    
    
    Then:
    E|---------------------------------|
    B|---------------------------------|
    G|---------------------------------|
    D|-7-7-7-7-5-5-5-5-3-3-3-3-2-2-2-2-|
    A|-7-7-7-7-5-5-5-5-3-3-3-3-2-2-2-2-|x2
    E|-5-5-5-5-3-3-3-3-1-1-1-1-0-0-0-0-|
    
    Prechorus:
    E|---------|
    B|---------|
    G|---------|
    D|-2-2-2-2-|
    A|-2-2-2-2-|
    E|-0-0-0-0-|
    
    Chorus:
    E|----------------------------------------------------|
    B|----------------------------------------------------|
    G|-7-7-7-7-7-7----------------------------------------|
    D|-7-7-7-7-7-7--8-8-8-8-8--5-5-5-5-5--3-3-3/7-7-7-7-7-|x2
    A|-5-5-5-5-5-5--8-8-8-8-8--5-5-5-5-5--3-3-3/7-7-7-7-7-|
    E|--------------6-6-6-6-6--3-3-3-3-3--1-1-1/5-5-5-5-5-|
    
    Then:
    E|------------------------|
    B|------------------------|
    G|------------------------|
    D|------------------------|x2
    A|---7-7---------7-7------|
    E|-0-----7-4-0-0-----7-4~-|
    
    Verse…
  • Verse:
    G- - - - - - - - - - - - - - - - - - - - - 
    D- - - - - - - - - - - - - - - - - - - - - 
    A- -4-4- -0-0- - - - - - - - - - - - - - 	-	2x/4x
    E- - - - - - - - -2-2- -4-4- -5-4- - - - -
    
    I can imagine that the chorus sounds…
  • Intro:
    E|------------|
    B|------------|
    G|------------|
    D|-2-2-2-4-5--|x3
    A|-2-2-2-4-5--|
    E|-0-0-0-2-3--|
    
    
    E|---------------|
    B|---------------|
    G|---------------|
    D|-2-2-2-4-5-2-5-|x4
    A|-2-2-2-4-5-2-5-|
    E|-0-0-0-2-3-0-3-|
    
    Verse:
    .......P.M.......
    E|--------------|
    B|--------------|
    G|--------------|
    D|-7-7-7-7-9-10-|x3
    A|-7-7-7-7-9-10-|
    E|-5-5-5-5-7-8--|
    
    E|---------------|
    B|---------------|
    G|---------------|
    D|-2-2-2-4-5-2-5-|x4
    A|-2-2-2-4-5-2-5-|
    E|-0-0-0-2-3-0-3-|
    
    .......P.M.......
    E|--------------|
    B|--------------|
    G|--------------|
    D|-7-7-7-7-9-10-|x3
    A|-7-7-7-7-9-10-|
    E|-5-5-5-5-7-8--|
    
    E|---------------|
    B|---------------|
    G|---------------|
    D|-2-2-2-4-5-2-5-|x4
    A|-2-2-2-4-5-2-5-|
    E|-0-0-0-2-3-0-3-|
    
    Chorus:
    E|-----------------------|
    B|-----------------------|
    D|-7-----3-----7-----5---|
    G|-7-----3-----7-----5---|x2
    A|-5-----1-----5-----3---|
    E|-----------------------|
    
    E|------------|
    B|------------|
    G|------------|
    D|-2-2-2-4-5--|x2
    A|-2-2-2-4-5--|
    E|-0-0-0-2-3--|
    
    E|---------------|
    B|---------------|
    G|---------------|
    D|-2-2-2-4-5-2-5-|x3
    A|-2-2-2-4-5-2-5-|
    E|-0-0-0-2-3-0-3-|
    
    Verse…
  • D                        F#m
    Oooh - at the end of the story
        Bm   G             A
    The boy goes down in flames
       D                   F#m
    Oh why - why should I worry?
          Bm   G           A
    'cause I know I can…
  • Tuning: standard
    
    e|--9--12--5--9--5--4--9--7--------------------------|
    B|-10--12--7-10--7--5-10--9--------------------------|
    G|---------------------------------------------------|
    D|---------------------------------------------------|
    A|---------------------------------------------------|
    E|---------------------------------------------------|
    
    this…
  • Intro:
    E|---------------------------------------------------------------------------|
    B|---------------------------------------------------------------------------|
    G|-/15-12-x-10-10/8-5-/15-12-x-x-x-10/8-5/10-12-x-10-10/8/12b--10p8-10p8-8-5-|
    D|---------------------------------------------------------------------------|
    A|---------------------------------------------------------------------------|
    E|---------------------------------------------------------------------------|
    
    E|-----------------------------------------------------------|
    B|-----------------------------------------------------------|
    G|-/15-12-x-10-10/8-5--/15-12-x-x-x-10/8-5/15-12-x-10-10/8-5-|
    D|-----------------------------------------------------------|
    A|-----------------------------------------------------------|
    E|-----------------------------------------------------------|
    
    E|---------------------------------------------------------------------------|
    B|---------------------------------------------------------------------------|
    G|/15-12-x-10-10/8-5/10-12-x-10-10/8-5/15-12-x-10/8-5/15-12-x-10-10/8/10-15~-|
    D|---------------------------------------------------------------------------|
    A|---------------------------------------------------------------------------|
    E|---------------------------------------------------------------------------|
    
    Verse:
    E|-----------------------------|
    B|-----------------------------|
    G|-5~~~~~----------------------|
    D|---------5~~~~~~-------------|x2
    A|-------------------3~~~~~~~~-|
    E|-----------------------------|
    
    Prechorus:
    E|----------------------------------------------------------------------------|
    B|----------------------------------------------------------------------------|
    G|-/15-12-x-10-10/8-5--/15-12-x-x-x-10/8-5/10-12-x-10-10/8/12b--10p8-10p8-8-5-|
    D|----------------------------------------------------------------------------|
    A|----------------------------------------------------------------------------|
    E|----------------------------------------------------------------------------|
    
    Chorus:
    E|-----------------------------|
    B|-----------------------------|
    G|-5-5-8-5-5-8-5-5-8-5-3-3-4-5-|
    D|-----------------------------|x5
    A|-----------------------------|
    E|-----------------------------|
    I'm…
  • B  Ab  E  B x2
    B  A x2
    
    Verse:
    B                   Am                   Em
    I can never be the same, that Iwas yesterday.
    B                A                Em
    I'm losing my mind, I'm losing control.
    B…
  • Intro: Dm
    
    Verse:
    Dm                  Dm
    Here, lonely and marooned
    Dm                   Dm
    Here, howling at the moon
            Gm       Gm      Am       Dm   Dm     
    So I'll wait in silence, silence, silence
    
    Chorus:
    A#…
  • Intro/Verse:x2
         ...............    .   .
    E|------------------------------|
    B|------------------------------|
    G|-6------------------9---7---6-|
    D|-6-6-6-6-6----------9---7---6-|
    A|-4-4-4-4-4-7-7-7-7--7---5---4-|x3
    E|-----------5-5-5-5----0---0---|…
  • F#m                                       E          F#m
    I rest my case every time we kissed it left a bitter taste
    F#m                                     E                 F#m
    On your cold lips, baby it was something…
Наверх