Аккорды Thousand Foot Krutch - All I Need To Know

Добавлено: @romashka
Дата добавления: 30 Января 2018г.
Рейтинг:
0.0
Просмотров: 309
Транспонировать - +
Intro:
   D                               G  
1)-2-2-2--5--2--0--2-2-2--5--2--0-|-2-2-2--5--2--0--2-2-2--2--0-
2)-3-3-3--3--3--3--3-3-3--3--3--3-|-3-3-3--3--3--3--3-3-3--3--3-
3)-2-2-2--2--2--2--2-2-2--2--2--2-|-2-2-2--2--2--2--2-2-2--2--2-
4)-0-0-0--0--0--0--0-0-0--0--0--0-|-0-0-0--0--0--0--0-0-0--0--0-
5)--------------------------------|-0-0-0--0--0--0--0-0-0--0--0-
6)--------------------------------|-3-3-3--3--3--3--3-3-3--3--3-
          Wa-oh–oh        Wa–oh–oh         Wa–oh–oh

Verse:
           D
You could read a million pages, 
          D
Know the words and all the phrases.
            G                          G
You could try to turn a lie into the truth.
         D
You can live to be a hundred, 
     D
Memorizing every number.
          G                       G
You could even put a man on the moon.
          A                                G
And the science of the heart is sometimes lost on me.
         A              G
But I'm following this feeling

Chorus:
D                                   D
I don't know why, it's so hard to swallow our pride
    G                       G
And I don't know how many wrongs make a right.
   D                         D 
I don't know the reason sometimes it just feels so 
 G           G
Good to cry
                        A                     A
And I don't know which way the wind will blow,
            G          G
But you're here with me,
                           D
And that's all I need to know

   D                               G  
1)-2-2-2--5--2--0--2-2-2--5--2--0-|-2-2-2--5--2--0--2-2-2--2--0-
2)-3-3-3--3--3--3--3-3-3--3--3--3-|-3-3-3--3--3--3--3-3-3--3--3-
3)-2-2-2--2--2--2--2-2-2--2--2--2-|-2-2-2--2--2--2--2-2-2--2--2-
4)-0-0-0--0--0--0--0-0-0--0--0--0-|-0-0-0--0--0--0--0-0-0--0--0-
5)--------------------------------|-0-0-0--0--0--0--0-0-0--0--0-
6)--------------------------------|-3-3-3--3--3--3--3-3-3--3--3-
          Wa-oh–oh        Wa–oh–oh         Wa–oh–oh

Verse:
           D
There's a moment in the morning, 
        D
When I feel the most alone
             G                G
But then I hear your voice, whispering my name.
             D
It's like a wave of understanding 
       D  
And I never could have planned it
           G                        G
When the questions, and doubts all fade away.

Chorus:
D                                   D
I don't know why, it's so hard to swallow our pride
    G                       G
And I don't know how many wrongs make a right.
   D                         D 
I don't know the reason sometimes it just feels so 
 G           G
Good to cry
                        A                     A
And I don't know which way the wind will blow,
            G          G
But you're here with me,
                           D
And that's all I need to know

   D                               G  
1)-2-2-2--5--2--0--2-2-2--5--2--0-|-2-2-2--5--2--0--2-2-2--2--0-
2)-3-3-3--3--3--3--3-3-3--3--3--3-|-3-3-3--3--3--3--3-3-3--3--3-
3)-2-2-2--2--2--2--2-2-2--2--2--2-|-2-2-2--2--2--2--2-2-2--2--2-
4)-0-0-0--0--0--0--0-0-0--0--0--0-|-0-0-0--0--0--0--0-0-0--0--0-
5)--------------------------------|-0-0-0--0--0--0--0-0-0--0--0-
6)--------------------------------|-3-3-3--3--3--3--3-3-3--3--3-
          Wa-oh–oh        Wa–oh–oh         Wa–oh–oh

Bridge:
   A                  
I figured it out, you turned me around 
         G
At the speed of light.
A               
All that I ever needed to know 
    G 
Was in your eyes.

Chorus:
D                                   D
I don't know why, it's so hard to swallow our pride
    G                       G
And I don't know how many wrongs make a right.
   D                         D 
I don't know the reason sometimes it just feels so 
 G           G
Good to cry
                        A                     A
And I don't know which way the wind will blow,
            G          G
But you're here with me,
                           D
And that's all I need to know

   D                               G  
1)-2-2-2--5--2--0--2-2-2--5--2--0-|-2-2-2--5--2--0--2-2-2--2--0-
2)-3-3-3--3--3--3--3-3-3--3--3--3-|-3-3-3--3--3--3--3-3-3--3--3-
3)-2-2-2--2--2--2--2-2-2--2--2--2-|-2-2-2--2--2--2--2-2-2--2--2-
4)-0-0-0--0--0--0--0-0-0--0--0--0-|-0-0-0--0--0--0--0-0-0--0--0-
5)--------------------------------|-0-0-0--0--0--0--0-0-0--0--0-
6)--------------------------------|-3-3-3--3--3--3--3-3-3--3--3-
          Wa-oh–oh        Wa–oh–oh         Wa–oh–oh

Бой:V v ^ ^ v v v ^
Наверх