Аккорды Three Days Grace - Never Too Late

Добавлено: @romashka
Дата добавления: 26 Марта 2019г.
Рейтинг:
0.0
Просмотров: 64
Транспонировать - +
Вступление/куплет/конец песни: x3 (Riff 1)
E|--------------------------------|-------------------|
B|--------------------------------|-------------------|
G|--------------------------------|-------------------|
D|-------10-----------10--8--7--0-|-------10-----10---|
A|----8------8-----0--------------|----7------7--10---|
D|-8------------0-----------------|-7------------10---|

Припев: (Riff 2) 
Для удобство название аккордов 
в припеве D5 / A#5 / A5 / C5 (квинты)
E|-Это как они зажимаются|
B|-----------------------|
G|-D5---A#5--A5----C5----|
D|-0----8----7-----10----|
A|-0----8----7-----10----|
D|-0----8----7-----10----|

Куплет 1: (играется как intro)
Riff 1
This world will never be
What I expected
And if I don't belong
Who would have guessed it
I will not leave alone
Everything that I own
To make you feel like it's not too late
It's never too late

Припев: (Riff 2)
D5        A#5
Even if I say
A5         C5
It'll be alright
D5          A#5
Still I hear you say
A5           C5
You want to end your life
D5           A#5
Now and again we try
A5           C5
To just stay alive
D5              A#5
Maybe we'll turn it around
A5 / C5
'Cause it's not too late
D5 / A#5 / A5 / C5
It's never too late

Куплет:
Riff 1
No one will ever see
This side reflected
And if there's something wrong
Who would have guessed it
And I have left alone
Everything that I own
To make you feel like
It's not too late
It's never too late

Припев: (Riff 2)
D5        A#5
Even if I say
A5         C5
It'll be alright
D5          A#5
Still I hear you say
A5           C5
You want to end your life
D5           A#5
Now and again we try
A5           C5
To just stay alive
D5              A#5
Maybe we'll turn it around
A5 / C5
'Cause it's not too late
D5 / A#5 / A5 / C5
It's never too late

Бой A#5/C5: вниз.. вверх. вниз. вверх.
для D5/A5: Вниз...вверх.вниз.вверх.вниз.вверх.вниз.вверх
comments powered by Disqus
Наверх