Аккорды Tim Erna - Ілюзія

Добавлено: @romashka
Дата добавления: 02 Октября 2017г.
Рейтинг:
0.0
Просмотров: 211
Транспонировать - +
Вступление 1: x4
1)-------1---0--------3---1--
2)---3------------1----------
3)-----2------------2--------
4)-0------------3------------

Вступление 2: x4
4)-0---2/3-0---7/8-2-3--3---5/7-5--7/8-7--

Куплет:
Dm           
Засынай, мая чортава муза, 
  F              Gm   /   A     
Убачымся зноў у халодным сне,
     Dm             
Так, мы паміраем, і тэмпература,
 F                Gm  /  A     
Падаець ніжэй за сябе. (А я)
    Dm             
Ствару гэты сон, павяду цябе сьцежкай, 
   F           Gm    /    A
Запалім агні і чэшырскай усьмешкай 
Dm                
Ты растварысься ў вечнай гульні 
 F         Gm / A
Супраць мяне. 

Припев:
Dm              F       G / A 
 Мы жывем ва ўласным сьне, ты 
Dm                   F      Gm / A
 З пустэчы і пяску ствараеш мяне, я 
Dm               F       Gm / A  
 Твая шызафрэнія цемры й цішыні, 
Dm         F Gm / A    
 Я - твая ілюзія! 

Куплет:
Dm                 
Сны - гэта нашы маленькія казкі, 
    F         Gm / A     Dm  
Надзенем маскі, і згуляем п'есу, 
                            F
Ты прынцэса, якая глядзіць у вакно, 
         Gm  /  A
А я твой сумны П'еро. 
     Dm          
Запляцем адзін аднаго у арканы, 
   F             Gm    /    A
Я буду твой яд, а ты - мая драма, 
      Dm             
І назаўсёды працягнецца наша гульня, 
F      Gm / A
Ты або я. (Я!)

Припев:
Dm              F       G / A 
 Мы жывем ва ўласным сьне, ты 
Dm                   F      Gm / A
 З пустэчы і пяску ствараеш мяне, я 
Dm               F       Gm / A  
 Твая шызафрэнія цемры й цішыні, 
Dm         F Gm / A    
 Я - твая ілюзія! 

Проигрыш: x4
4)-0---2/3-0---2/3-0--2--0---2/3-0---2/3-0--2--0---2/3-0---7/8-2-3--3---5/7-5--7/8-7--

Вступление 1: x2
1)-------1---0--------3---1--
2)---3------------1----------
3)-----2------------2--------
4)-0------------3------------

Припев:
Dm              F       G / A 
 Мы жывем ва ўласным сьне, ты 
Dm                   F      Gm / A
 З пустэчы і пяску ствараеш мяне, я 
Dm               F       Gm / A  
 Твая шызафрэнія цемры й цішыні, 
Dm         F Gm / A    
 Я - твая ілюзія! 
Dm              F       G / A 
 Мы жывем ва ўласным сьне, ты 
Dm                   F      Gm / A
 З пустэчы і пяску ствараеш мяне, я 
Dm               F       Gm / A  
 Твая шызафрэнія цемры й цішыні, 
Dm         F Gm / A    
 Я - твая ілюзія! 

Проигрыш: x2
4)-0---2/3-0---2/3-0--2--0---2/3-0---2/3-0--2--0---2/3-0---7/8-2-3--3---5/7-5--7/8-7--

Кода=Вступление 1: x2
1)-------1---0--------3---1--
2)---3------------1----------
3)-----2------------2--------
4)-0------------3------------

Бой для целого аккорда: V v ^ ^ v v v^. 
Целый аккорд только Dm , F - половина , Gm и A - 1/4
Наверх