Аккорды Tokio Hotel - Feel It All

Добавлено: @romashka
Дата добавления: 11 Апреля 2020г.
Рейтинг:
0.0
Просмотров: 178
Транспонировать - +
[Intro]

Am C Em D

e|----------------------------------------------------|
B|-----0---0----0--------------0---0----0-------------|
G|-------2--------2-0------------2--------2-0---------|
D|---2--------2-------4-2----2--------2-------4-2-----|
A|----------------------------------------------------|
E|----------------------------------------------------|

[Verse]

Am           C
Strobe lights
                 Em      D
Flashing out of your eyes
               Am       C
I can feel you all night
                 Em    D
I won't let you down, down
Am       C
Your love
             Em   D
Breaking in colors
                     Am        C
Touched and we can't get enough
                    Em          D
You're spinning me round, and around


[Pre-Chorus]

Am C Em D

e|----------------------------------------------------|
B|-----0---0----0--------------0---0----0-------------|
G|-------2--------2-0------------2--------2-0---------|
D|---2--------2-------4-2----2--------2-------4-2-----|
A|----------------------------------------------------|
E|----------------------------------------------------|

Am           C
Into the sunrise
         Em
Falling away now
          D               Am
Falling away, you feel it all
            C
Into the sunrise
         Em
Falling away now
          D               Am
Falling away, you feel it all


[Chorus]

(riff)

e|----------------------------------------------------------|
B|---5-5-5-5-5-5/8-8-8-8-8-7/8-8-8-8-8-8/12-12-12/7-7-7-----|
G|----------------------------------------------------------|
D|----------------------------------------------------------|
A|----------------------------------------------------------|
E|----------------------------------------------------------|

        C   Em
Feel it all
            D
Don't look back
            Am
Just let it go
        C   Em
Feel it all
            D
Don't look back
            Am        C
Just let it go, oh oh oh
              Em   D
A new day is coming
            Am         C
Our time is now, oh oh oh
              Em   D
A new day is coming


[Verse]

Am           C
Strobe lights
                 Em      D
Flashing out of your eyes
               Am       C
I can feel you all night
                 Em    D
I won't let you down, down
Am       C
Your love
             Em   D
Breaking in colors
                     Am        C
Touched and we can't get enough
                    Em          D
You're spinning me round, and around


[Pre-Chorus]

Am C Em D

e|----------------------------------------------------|
B|-----0---0----0--------------0---0----0-------------|
G|-------2--------2-0------------2--------2-0---------|
D|---2--------2-------4-2----2--------2-------4-2-----|
A|----------------------------------------------------|
E|----------------------------------------------------|

Am           C
Into the sunrise
         Em
Falling away now
          D               Am
Falling away, you feel it all
            C
Into the sunrise
         Em
Falling away now
          D               Am
Falling away, you feel it all


[Chorus]

(riff)

e|----------------------------------------------------------|
B|---5-5-5-5-5-5/8-8-8-8-8-7/8-8-8-8-8-8/12-12-12/7-7-7-----|
G|----------------------------------------------------------|
D|----------------------------------------------------------|
A|----------------------------------------------------------|
E|----------------------------------------------------------|

        C   Em
Feel it all
            D
Don't look back
            Am
Just let it go
        C   Em
Feel it all
            D
Don't look back
            Am        C
Just let it go, oh oh oh
              Em   D
A new day is coming
            Am         C
Our time is now, oh oh oh
              Em   D
A new day is coming
            Am  C  Em  D
Our time is now
            Am  C  Em  D
Our time is now


[Bridge]

Am                    C          Em  D
Nothing can break us down tonight
Am                    C          Em  D
Nothing can break us down tonight


[Chorus]

Am C Em D

e|----------------------------------------------------|
B|-----0---0----0--------------0---0----0-------------|
G|-------2--------2-0------------2--------2-0---------|
D|---2--------2-------4-2----2--------2-------4-2-----|
A|----------------------------------------------------|
E|----------------------------------------------------|

        C   Em
Feel it all
            D
Don't look back
            Am
Just let it go
        C   Em
Feel it all
            D
Don't look back
            Am        C
Just let it go, oh oh oh
              Em   D
A new day is coming
            Am         C
Our time is now, oh oh oh
              Em   D
A new day is coming
            Am
Our time is now
        C
You and I
Em               D
And somewhere tonight
Am      C
You and I
Em               D
And somewhere tonight
Наверх