Аккорды Tommy Emmanuel - Classical Gas

Добавлено: @romashka
Дата добавления: 11 Марта 2018г.
Рейтинг:
0.0
Просмотров: 98
Транспонировать - +
Main riff/riff 1:
e|---------------------------------------------------
B|-1^0---0-1-0------------------0-------0------------
G|-2---2------------0-----0-------2^0^2---2--0^2-0^2-
D|-2--------------0-----0-----------------2--0^2-0^2-
A|-0--------------------------------------0----------
E|--------------3-----2-----0---0--------------------

e|-----------------------------------------------1-2-3-4--5--7-
B|-1^0---0-1-0------------------0-------0--1-0-1-1-1-0---------
G|-2---2------------0-----0-------2^0^2----2-0-0-2-2-0---------
D|-2--------------0-----0------------------2-0-2-3-0-----------
A|-0---------------------------------------0-2-3---------------
E|--------------3-----2-----0---0--------------------3-0--0--0-

Riff 2:
e|--8^7-5-----5----------8^7-5-----5--3^2^0---------------
B|--------8------7-------------8------------3^0-----------
G|----------------------------------------------4^2^0-----
D|----------------------------------------------------2^0-
A|--0---0---0------------0---0---0------------------------
E|--------------------------------------------------------

e|--8^7-5-----5----
B|--------8------7-
G|-----------------
D|-----------------
A|--0---0---0------
E|-----------------

Riff 2 has a couple of ways he plays the endings, 
ending 1 is first and most of the rest are ending 2.

Ending 1:
e|---------------1----------0-0-----0-----0----------0-----0------0-
B|---0-----1-----1-----3----3---3-----3-----3----------0-----0----0-
G|---0-----0-----2-----1----2-----2-----2----------------1-----1--1-
D|---0-----2---3---3---3----2-------------------------------------2-
A|-------3---3-------1---1--0-------------------------------------2-
E|-3---3---------------------------------------3^2-0--------------0-

Ending 2:
e|-----------------------1---------0-0-----0-----0----------0-----0------0-
B|-------0-------1-------1-------3-3---3-----3-----3----------0-----0----0-
G|-------0-------0-------2-------1-2-----2-----2----------------1-----1--1-
D|-------0-------2-0-2-3---------3-2-------------------------------------2-
A|---------0-2-3-----------3-2-1---0-------------------------------------2-
E|-0-2-3----------------------------------------------3^2-0--------------0-

Riff 3:
e|--------------------------------3-------------------------------
B|-5-5------5--6-6-5----5-5-----5---6-6-5-3-5-6-7-8-8-----8-9-9-8-
G|-5------5-------------------5-------------------------8---------
D|-5----5-------------------5-------------------------8-----------
A|-3------------------3-------------------------------------------
E|----------------------------------------------------------------

e|---------------------------------------------------------------------------
B|--9------10-------11-------12-------13-------14-------15-------16-------17-
G|----8-------10-------10-------12-------12-------14-------14-------16-------
D|------10-------10-------12-------12-------14-------14-------16-------16----
A|---------------------------------------------------------------------------
E|---------------------------------------------------------------------------

e|-------16--16-----------------17--17-----------------18-18-------19*-
B|----17--------17-----------17--------17-----------17-------17--------
G|-16--------------16--17-17--------------17--18-18-------------18-----
D|---------------------------------------------------------------------
A|---------------------------------------------------------------------
E|---------------------------------------------------------------------

*first time through it ends here
e|--19b--19-17--16b--16-----------------------------17-17-19-19b-19b-
B|----------------------17-15--------------15-17-19------------------
G|----------------------------16-14-13--16---------------------------
D|-------------------------------------------------------------------
A|-------------------------------------------------------------------
E|-------------------------------------------------------------------

e|-19br-17--20br--17--20-17-----------------------17-20--19-17-
B|---------------------------19-----------------19-------------
G|------------------------------20-17-----17-20----------------
D|------------------------------------19-----------------------
A|-------------------------------------------------------------
E|-------------------------------------------------------------

e|-17--19--20--19--17--19~--------------------------------------------15b-
B|-------------------------/17-17-17-17--/17-17-17-17--/17-17-17-17-------
G|-------------------------/16-16-16-16--/16-16-16-16--/16-16-16-16-------
D|------------------------------------------------------------------------
A|------------------------------------------------------------------------
E|------------------------------------------------------------------------

Outro riff:
e|--5--3--1---3--5--5--5-5--3--5---------
B|--5--3--1---3--5--5--5-5--3--5---------
G|--5--4--2---4--5--5--5-5--4--5---------
D|--7--5--3---5--7--7--7-7--5--7---7-7-7-
A|--7--5--3---5--7--7--7-7--5--7---7-7-7-
E|--5--3--1---3--5--5--5-5--3--5---5-5-5-

^ is hammer on or pull off
/ or  is slide up or down
~ is hold note

There's a chunk missing which i have no idea about. 
in the version of the song that i have that is.
comments powered by Disqus
Наверх