Аккорды Тостер - Та що, ти є

Добавлено: @romashka
Дата добавления: 11 Мая 2018г.
Рейтинг:
0.0
Просмотров: 18
Транспонировать - +
Куплет:
Gm    A#          F    C  
Кожен ранок ти встаєш і йдеш до школи,
Gm     A#        F          C
По барабану вчителі, в тебе свої приколи.
Gm     A#          F             C 
Друзі, пиво, рок-н-рол – не хочеться додому,
Gm    A#         F            C    
В тебе є своє життя, батьки не шарять в ньому.

Пре-Приспів:
Gm    A#          F C
Проживи як хочеш ти
Gm     A#           F
Кожен день свого життя.

Приспів:
    C       Gm 
Ти та, що ти є!
  Gm        A#     F    C       Gm        A#     F    C
2)----------------------1--1--1-----------------------1--1--1-
3)-0--0-2-3-2--3-2-0-------------0--0-2-3-2--3-2-0------------
4)-------------------3-----------------------------3----------
                       Та що, ти є!                   Та!...
Gm A# F C

Куплет:
Gm     A#        F          C
Робиш світ собі сама, сама живеш у ньому,
Gm       A#           F           C  
Я дуже вдячний, що мені є місце в світі твому.

Пре-Приспів:
Gm    A#          F C
Проживи як хочеш ти
Gm     A#           F
Кожен день свого життя.

Приспів:
    C       Gm 
Ти та, що ти є!
  Gm        A#     F    C        Gm        A#     F    C
2)----------------------1--1--1-|----------------------1--1--1-
3)-0--0-2-3-2--3-2-0------------|-0--0-2-3-2--3-2-0------------
4)-------------------3----------|-------------------3----------
                       Та що, ти є!                   Та!...
  Gm        A#       F  C        Gm        A#       F  C  
1)-3--3-5-6-5--6-5-3-1----3---3-|-3--3-5-6-5--6-5-3-1----3---3-
2)----------------------1---1---|----------------------1---1---

C D D# F } x2

Пре-Приспів:
Gm    A#          F C
Проживи як хочеш ти
Gm     A#           F
Кожен день свого життя.

Приспів:
    C       Gm 
Ти та, що ти є!
  Gm        A#     F    C        Gm        A#     F    C
2)----------------------1--1--1-|----------------------1--1--1-
3)-0--0-2-3-2--3-2-0------------|-0--0-2-3-2--3-2-0------------
4)-------------------3----------|-------------------3----------
                       Та, що ти є!                   Та, що ти є!
  Gm        A#       F  C        Gm        A#       F  C      Gm
1)-3--3-5-6-5--6-5-3-1----3---3-|-3--3-5-6-5--6-5-3-1----3---3-
2)----------------------1---1---|----------------------1---1---

Бій Куплет: V v v V v v V v. Пре-Приспів: v v V . Приспів: V v ^ ^ v ^.
comments powered by Disqus
Наверх