Аккорды Toto - If You Belong To Me

Добавлено: @romashka
Дата добавления: 26 Ноября 2015г.
Рейтинг:
0.0
Просмотров: 361
Транспонировать - +
intro (you can play it if you want...)

G|-----------------------------------------|
D|-----------------------------------------|
A|---2~-------------------2~---------------|
E|--------2~----5~-----2-------2~----5~----|

  riff A (main riff): x6
G|--------------------------------------------|
D|------------------------------------2--4----|
A|--------0--2~-----2-------0--2~---4---------|
E|---2~----------------2~---------------------|

  bridge to chorus:
G|----------------------------------------------------------------------------|
D|--------------------------------------9-------------------------------------|
A|---2--2--4--5---0h1h2---------9----------9---2---4---5---5---7---9---9------|
E|-----------------------2/7~-------7--------------------------------------7--|

  Chorus(X2)
G|---------------------------------------------------------|
D|-------------------------------7---------7--7--6--4----4-|
A|-------------------------7--------7------------------7---|
E|---7---72-----2-5----5-----5---------5------------------|


G|----------/11---------------------------------------------|
D|---4---4-------11----------------------/14----------------|
A|-------------------9~---9--11--12--12-------12--11--9--7--|
E|----------------------------------------------------------|

G|--------------------------------------------|
D|--------------------------------------------|
A|----------/147--------------12--11--9--7--|
E|--7---7----------2---2---5------------------|


G|----------------|------------|---------------|
D|----------------|------------|---------------|
A|---Riff-A(X6)---|---Bridge---|--Chorus(X2)---|
E|----------------|------------|---------------|

  Mr. Lukather guitar solo
G|-------------------------------------------------------|
D|--------------------------------------9----------------|
A|----7---7---7---7---7--------------7------9----9---9---|
E|------------------------7------7-----------------------|

G|-------------------------------------------------------|
D|-------------------------------------------9-----------|
A|--------11p9---7---7---7---7-----------7-------9---9---|
E|----9--------------------------7---7-------------------|

G|-------------------------------------------|
D|---------------------------7---9-----------|
A|---9-----------7---7---7-------------------|
E|-------9---9-----------------------7----7~-|

G|-------------------------|
D|-------------------------|
A|---Chorus-(ad libitum)---|
E|-------------------------|


Наверх