Аккорды Црвених Цветова - Дети хоронят кота

Добавлено: @romashka
Дата добавления: 23 Июня 2022г.
Рейтинг:
0.0
Просмотров: 34
Транспонировать - +
e|-----------------------------|
B|-----------------------------|
G|-----------------------------|
D|-----------------------------|
A|10-9-12----------------|
E|-0---0--0-----------------| x4

e|-----------------------------|
B|-----------------------------|
G|-12--11------------------|
D|--8----10-----------------|
A|--x-----x------------------|
E|--8-----8------------------| x2


e|-----------------------------|
B|-----------------------------|
G|-----------------------------|
D|-----------------------------|
A|-10--9--12--------------|
E|-0---0--0------------------| x2

e|---------------------------------|
B|--------------------------------|
G|-12--11---------------------|
D|-x---x------------------------|
A|-10--10--------------------|
E|-8-----8----------------------| x2

e|-------------------------------|
B|-------------------------------|
G|-12---9-11-5--7--------|
D|--x----x--x--x--x---------|
A|-10---7--9--7--9--------|
E|-------------------------------|

e|----------------------------|
B|----------------------------|
G|--4----5------------------|
D|--2----2------------------|
A|--3----3------------------|
E|----------------------------| x2

e|---------------------------------|
B|---------------------------------|
G|-4--8--9---11--------------|
D|-5--9--10--12-------------|
A|-5--9--10--12-------------|
E|-3--7--8---10--------------|


[Verse 2]


e|-----------------------------|
B|-----------------------------|
G|-----------------------------|
D|-----------------------------|
A|-10--9--12-------------------|
E|-0---0--0--------------------| x2

e|-----------------------------|
B|-----------------------------|
G|-12--11----------------------|
D|-x---x-----------------------|
A|-10--10----------------------|
E|-8---8-----------------------| x2

e|-----------------------------|
B|-----------------------------|
G|-----------------------------|
D|-----------------------------|
A|-10--9--12-------------------|
E|-0---0--0--------------------| x2

e|-----------------------------|
B|-----------------------------|
G|-12--11----------------------|
D|-x---x-----------------------|
A|-10--10----------------------|
E|-8---8-----------------------| x2

[Chorus]

e|-----------------------------|
B|-----------------------------|
G|-12--11----------------------|
D|-x---x-----------------------|
A|-10--10----------------------|
E|-8---8-----------------------| x4

e|---------------------------|
B|---------------------------|
G|-4--8--9---11--------------|
D|-5--9--10--12--------------|
A|-5--9--10--12--------------|
E|-3--7--8---10--------------|

Уходит в туманное небо
Кусок отсыревшей стены
Они смотря в унылый пейзаж
Холодной и серой страны
Бесконечные съемные комнаты
Шепот кирпичной застройки
Веяло влагой с холодной реки
Горела трава и тлели помойки
Дети хоронят кота
Между хрущевкой и гаражами
Между счастливым детством и
Несчастливой дальнейшей судьбой
Дети хоронят кота
Развевается черное знамя
В свете холодной луны
В парке за черной рекой
Пусть их обнимает туман
Пусть их продувает насквозь
Взросление это обман
Никто не хотел но пришлось
Бесконечные съемные комнаты
Шепот кирпичной застройки
Веяло влагой с холодной реки
Горела трава и тлели помойки
Дети хоронят кота
Между хрущевкой и гаражами
Между счастливым детством и
Несчастливой дальнейшей судьбой
Дети хоронят кота
Развевается черное знамя
В свете холодной луны
В парке за черной рекой 
Наверх