Аккорды Туманный Альбион - Звёздочки

Добавлено: @romashka
Дата добавления: 21 Января 2023г.
Рейтинг:
0.0
Просмотров: 36
Транспонировать - +
[Куплет 1]:
Em
Посмотри на небо,
C
Вытри слезы,
G
Видишь там горят
Dm
Холодные звезды,
Em
Но они не только светят,
C
Но еще и любят,
G
И всем одно,
Dm
И тоже говорят

[Припев]:
G
Ну что же вы люди,
C
Друг друга не любите?
Em
Вот мы, хоть и звезды,
Dm
А жить друг без друга не сможем!

[Проигрыш]:
Em              C
E-2-3-3--3------2-3-3--3-------
B------------------------------
G------------------------------


G               Dm
E-2-3-3--3------3-3-3-2--2-3-2-
B------------------------------
G------------------------------


Em              C
E-2-3-3--3------3/5-3/7--5-----
B------------------------------
G------------------------------


G               Dm
E-7-7-7---------7-7-5-5-5-3-7-5
B------------------------------
G------------------------------


G               C
E-7-7-10-10------7-8-7-7-5-----
B------------8-----------------
G------------------------------


Em              Dm
E-7-7-10-10------7-8-7-7-5-----
B------------8-----------------
G------------------------------


E-5-5-5-3-2---7--
B----------------
G----------------

[Куплет 2]:
Em
Да ты, наверное, уйдешь
C
Ещё до рассвета,
G
Я останусь один,
Dm
Так и кончится лето,
Em
Но однажды ночью,
C
Когда ты будешь спать,
G
Звезды смогут
Dm
На ушко прошептать

[Припев]:
G
Ну что же вы люди,
C
Друг друга не любите?
Em
Вот мы, хоть и звезды,
Dm
А жить друг без друга не сможем!
Наверх