Аккорды «Улица Восток»

Улица Восток
Атмосферный пост-панк от независимой киевской группы Улица Восток. Улица Восток - это истории об одиночестве и попытках с ним бороться. Дебютный мини-альбом состоит из мрачных, монотонных, но энергичных куплетов под простые гитарные мелодии, которые не отличаются особой сложностью. Стихи, которые стали песнями. Истории последнего дурака в большом умном городе. Атмосферный пост-панк от независимой киевской группы Улица Восток. Улица Восток - это истории об одиночестве и попытках с ним бороться. Дебютный мини-альбом состоит из мрачных, монотонных, но энергичных куплетов под простые гитарные мелодии, которые не отличаются особой сложностью. Стихи, которые стали песнями. Истории последнего дурака в большом умном городе. Скрыть...
Популярные аккорды Улица Восток:
алфавиту | просмотрам | случайно
  • Riff1:                        
    2)---------------------3------|
    3)---4----4---4----2-----5----|
    4)-5----5----5---4---4-----4--|
    
    Riff2:
    6)-3-3-3-3-3-3-3-3--7-7-7-7-7-7-7-7--2-2-2-2-2-2-2-2--0-0-0-0-0-0-0-0--|
    
    Riff3:
    6)-2-3-3-3-3-3-3-3-3-7-7-7-7-5-5-5--2-3-3-3-3-3-3-3-3-5-5-5-5-3-3-3-:
    
    :-2-3-3-3-3-3-3-3-3-7-7-7-7-5-5-5--5-5-5-5-5-5-5-5-5-3-3-3-3-3-3-3-|
    
    Riff4:
    1)-7-5-------------------7-7-7-7-5-5-5----7-5---------------------:
    2)------8-7--5-3-------------------------------8-7--5-3-----------:
    3)----------------5-4-5----------------------------------5-4-5----:
    
    :-5-5-5-5-3-3-3----7-5---------------------7-7-7-7-5-5-5--2---3-0-|
    :-----------------------8-7--5-3----------------------------------|
    :---------------------------------5-4-5---------------------------|
    
    Pre-solo:
    1)-7-5-----------------8-6-----------------7-5-------------------------------|
    2)------8-7--5-3------------9-8--6-4------------8-7--5-3---------------------|
    3)----------------5-4-----------------6-5-----------------5-4-5--4-5-4-5-4-5-|
    
    Solo:
    1)-12-10----12-10----------12-10----12-10---------:
    2)-------10-------10-10----------10---------------:
    3)----------------------------------------12-12---:
    
    :-12-10----12-10----------------------------------:
    :-------10-------12----------12-------12----------:
    :-------------------12-11-------12-11----12-11-12-:
    
    Outro;
    1)-5-5-5-5-3-3-3-2--3-3-3-3-2-2-2-0--5-5-5-5-3-3-3-2--3-|
    
    Структура…
  • 6------------------------------------------
    5-------3--2-----------------------3-------
    4-2--04--4--4025---------04-4-------4-4--45
    3--04--2--0-----40545454---2-547545--0-20--
    2------------------------------------------
    1------------------------------------------
    
    Ты…
  • C Am Em Bm
    C A  Em B
    C Am Em Bm
    C A  Em 
    
    С
    Плыви скорей на встречу
    
    Сквозь, солнце, бури, вечность
    
    Неважно, утро, вечер
           Em    D    C   D  Em    D  C    D
    Я буду с тобой, с тобой, с тобой, с тобой
    
    C
    Лица…
  • Em C Am Em
    Когда земля идет из под ног -
    Уйти за порог
    Не оставив следы
    Мой дом - персональный острог
    Скормить себя тени
    На радость толпы
    
    Упали столпы
    И съехались стены
    В конвульсиях бьются Глухие углы
    Лишь скрип…
Наверх