Аккорды Улица Восток - Тонкая нить

Добавлено: @romashka
Дата добавления: 13 Августа 2021г.
Рейтинг:
0.0
Просмотров: 67
Транспонировать - +
Riff1:                        
2)---------------------3------|
3)---4----4---4----2-----5----|
4)-5----5----5---4---4-----4--|

Riff2:
6)-3-3-3-3-3-3-3-3--7-7-7-7-7-7-7-7--2-2-2-2-2-2-2-2--0-0-0-0-0-0-0-0--|

Riff3:
6)-2-3-3-3-3-3-3-3-3-7-7-7-7-5-5-5--2-3-3-3-3-3-3-3-3-5-5-5-5-3-3-3-:

:-2-3-3-3-3-3-3-3-3-7-7-7-7-5-5-5--5-5-5-5-5-5-5-5-5-3-3-3-3-3-3-3-|

Riff4:
1)-7-5-------------------7-7-7-7-5-5-5----7-5---------------------:
2)------8-7--5-3-------------------------------8-7--5-3-----------:
3)----------------5-4-5----------------------------------5-4-5----:

:-5-5-5-5-3-3-3----7-5---------------------7-7-7-7-5-5-5--2---3-0-|
:-----------------------8-7--5-3----------------------------------|
:---------------------------------5-4-5---------------------------|

Pre-solo:
1)-7-5-----------------8-6-----------------7-5-------------------------------|
2)------8-7--5-3------------9-8--6-4------------8-7--5-3---------------------|
3)----------------5-4-----------------6-5-----------------5-4-5--4-5-4-5-4-5-|

Solo:
1)-12-10----12-10----------12-10----12-10---------:
2)-------10-------10-10----------10---------------:
3)----------------------------------------12-12---:

:-12-10----12-10----------------------------------:
:-------10-------12----------12-------12----------:
:-------------------12-11-------12-11----12-11-12-:

Outro;
1)-5-5-5-5-3-3-3-2--3-3-3-3-2-2-2-0--5-5-5-5-3-3-3-2--3-|

Структура песни:
Riff1 — 4 раза

Riff2 — 4 раза на протяжении всего куплета
Клубком лежа на холодной земле
Там где гонцов высылает зима
Тихий гость так ждет вестей
Дыханьем грея свой каземат
Лишь к верху вьется тонкая нить
Колит иглой это серое небо
Зовет к себе и может быть
Глотком воды и коркой хлеба

Riff3 — 2 раза на протяжении всего припева
Не покидай меня среди чужих людей
На дай упасть на плечи грязных рынков и мощеных площадей
Не покидай меня среди чужих людей
На дай упасть на плечи грязных рынков и мощеных площадей

Riff4

Riff2 — 1 раз(первые 2 строчки), потом Riff1 — 3 раза(остальные)
Я пронесу тебя на руках
Не дам испачкаться в этой грязи
Дарю тебе свои паруса
Укроюсь землёй, а ты полетишь
Все выше вверх порхай мотыльком
Ласточкой над обрывом пари
Или по ветру кульком
Или звездой гори
(Можно спеть "звёздочкой", чтоб не растягивать слово)

Riff3 — 2 раза на протяжении всего припева
Не покидай меня среди чужих людей
Не дай упасть на плечи грязных рынков и мощеных площадей
Не покидай меня среди чужих людей
Не дай упасть на плечи грязных рынков и мощеных площадей

Riff4

Pre-solo

Solo — 2 раза

Outro

Стандартный строй, капо не нужен.
Наверх