Аккорды Unkle - In A State

Добавлено: @romashka
Дата добавления: 11 Января 2020г.
Рейтинг:
0.0
Просмотров: 92
Транспонировать - +
Втупление:
E|-----0---------------------------|
B|-----------3-----1-----0-----0---|
G|---------2-----2-----2-----2---2-|
D|---2---2-----2-----2-----2-------|
A|-0-------------------------------|
E|---------------------------------| }x10 (с замедлением)

E|-----0---------------------------|-----0-|
B|-----------3-----1-----1-0---0---|-------|
G|---------2-----2-----2-----2---2-|-------|
D|---2---2-----2-----2-------------|---2---|
A|-0-------------------------------|-0-----|
E|---------------------------------|-------|

Am (x4) - Asus2 - Asus4 (x2) - Asus2 - Am (x2) }4x

   Am Asus2 Asus4 Asus2 Am    Am Asus2 Asus4 Asus2 Am
My mind              is in a state
       Am   Asus2  Asus4 Asus2 Am   Am Asus2 Asus4 Asus2 Am
'Cause all i seem to do is tempt my fate
    Am Asus2 Asus4 Asus2 Am     Am Asus2 Asus4 Asus2 Am
Well i               try every space
    Am      Asus2       Asus4 Asus2 Am  Am Asus2 Asus4 Asus2 Am
But all the while we're crushing at the gate
     Dm Dsus2 Dsus4 Dsus2 Dm      Dm Dsus2 Dsus4 Dsus2 Dm
This time,                   this time
  Am  Asus2  Asus4 Asus2 Am   Am Asus2 Asus4 Asus2 Am
Reality struck me between the eyes

   Am Asus2 Asus4 Asus2 Am    Am Asus2 Asus4 Asus2 Am
My mind              is in a state
       Am   Asus2  Asus4 Asus2 Am     Am Asus2 Asus4 Asus2 Am
'Cause everything i miss it comes too late
     Am Asus2 Asus4 Asus2 Am    Am Asus2 Asus4 Asus2 Am
So i try              and disappear
    Am   Asus2  Asus4 Asus2 Am   Am Asus2 Asus4 Asus2 Am
But there is only one way out of here
     Dm Dsus2 Dsus4 Dsus2 Dm      Dm Dsus2 Dsus4 Dsus2 Dm
This time,                   this time
  Am  Asus2  Asus4 Asus2 Am   Am Asus2 Asus4 Asus2 Am
Reality struck me between the eyes

Проигрыш:
Am (x2) - Asus2 - Asus4 (x2) - Asus2 - Am (x2) }4x
Dm (x4) - Dsus2 - Dsus4 (x2) - Dsus2 - Dm (x2) }2x
Am (x2) - Asus2 - Asus4 (x2) - Asus2 - Am (x2) }2x
Dm (x4) - Dsus2 - Dsus4 (x2) - Dsus2 - Dm (x2) }2x
Am (x2) - Asus2 - Asus4 (x2) - Asus2 - Am (x2) }2x
Am (x4) - Asus2 - Asus4
Am (x4) - Asus2 - Asus4
Am (x4) - Asus2 - Asus4 (x2) - Asus2 - Am (x2) }2x


   Am Asus2 Asus4 Asus2 Am    Am Asus2 Asus4 Asus2 Am
My mind              is in a state
    Am   Asus2  Asus4 Asus2 Am    Am Asus2 Asus4 Asus2 Am
But all i need to do is change my pace
      Am Asus2 Asus4 Asus2   Am      Am Asus2 Asus4 Asus2 Am
And i know           there's fear to face
    Am   Asus2  Asus4 Asus2 Am   Am Asus2 Asus4 Asus2 Am
But happiness is firm in its embrace

     Am Asus2 Asus4 Asus2 Am | Am Asus2 Asus4 Asus2 Am   
This time                                                 }4x

Dm Dsus2 Dsus4 Dsus2 Dm | Dm Dsus2 Dsus4 Dsus2 Dm

     Am Asus2 Asus4 Asus2 Am | Am Asus2 Asus4 Asus2 Am   
This time   

Dm Dsus2 Dsus4 Dsus2 Dm | Dm Dsus2 Dsus4 Dsus2 Dm

     Am Asus2 Asus4 Asus2 Am | Am Asus2 Asus4 Asus2 Am   
This time   

Концовка:
Am (x4) - Asus2 - Asus4 (x2) - Asus2 - Am (x2) }∞

E|-----0---------------------------|
B|-----------3-----1-----0-----0---|
G|---------2-----2-----2-----2---2-|
D|---2---2-----2-----2-----2-------|
A|-0-------------------------------|
E|---------------------------------| }8x

Чтобы был понятен рисунок, в скобках указал кол-во ударов определённого аккорда.
Далее, почти вся песня играется с таким же рисунком.

Asus2 - x02200
Asus4 - x02230
Dsus2 - xx0230
Dsus4 - xx0233
Наверх