Аккорды Валерий Меладзе - Не тревожь мне душу, скрипка

Добавлено: @romashka
Дата добавления: 15 Ноября 2020г.
Рейтинг:
0.0
Просмотров: 22
Транспонировать - +
Вступление: Dm Am F G | Dm Am F E Am

            Dm              Am              F               G  
e|-------------------------------------------------------------
B|--------------------------10---------------------------------
G|------------------7-9-10------9--9-10-9-7-----------------7--
D|-9-10-9-7-7--9-10-------------------------7--9-10-9-7--------
A|------------------------------------------------------10-----
E|-------------------------------------------------------------

  G         Dm              Am              F       E      Am 
  -----------------------------------------------------------|
  --------------------------10-------------------------------|
  ------------------7-9-10------9--9-10-9-7------------------|
  -9-10-9-7-7--9-10-------------------------7--9-10-9-7-6--7-|
  -----------------------------------------------------------|
  -----------------------------------------------------------|

Am              E
Не тревожь мне душу, скрипка
C          E
Я слезы не удержу
Am         A7         Dm     Dm/C
Не томи меня своей печалью
E              E7
Грусть-тоску мою с тобою
A7            Dm
Ни за что не разделю
E         E7  E7-9  Am    Am Am/B Am/C
Всю её себе      оставлю.
 
Am             E
Юных лет хмельная дева
C          E
Помахала мне вослед,
Am            A7      Dm     Dm/C
От меня к другому улетая
E           E7
Годы пронеслись так скоро
A7          Dm
Оглянуться не успел -
E           E7  E7-9  Am    Am Am/B Am/C
Осень за окном     седая


Проигрыш: F G Dm  Dm6 Asus2

  F                                    G                                Dm         Dm6 Asus2
e|-----------------------------------------------------------------------------------|
B|-----------------------------------------------------------------------------------|
G|------12----------------12----------------12----------------12---------------------|
D|-9-10-----10-9-10--9-10-----10-9-10--9-10-----10-9-10--9-10-----10-9--7---10-9---7-|
A|------------------------------------------------------------------------8----------|
E|-----------------------------------------------------------------------------------|

Dm           Am
Выйду, дому поклонюсь
E7-9        Am
Молча Богу помолюсь
Dm         Am
И пойду искать края
E            Am
Где живёт любовь моя
Dm           E     Am
Где живёт любовь моя


Проигрыш: Dm Am F G | Dm Am F E Am

            Dm              Am              F               G  
e|-------------------------------------------------------------
B|--------------------------10---------------------------------
G|------------------7-9-10------9--9-10-9-7-----------------7--
D|-9-10-9-7-7--9-10-------------------------7--9-10-9-7--------
A|------------------------------------------------------10-----
E|-------------------------------------------------------------

  G         Dm              Am              F       E      Am 
  -----------------------------------------------------------|
  --------------------------10-------------------------------|
  ------------------7-9-10------9--9-10-9-7------------------|
  -9-10-9-7-7--9-10-------------------------7--9-10-9-7-6--7-|
  -----------------------------------------------------------|
  -----------------------------------------------------------|

Am             E
В чистом небе белый лебедь
C             E
Надо мной крылом взмахнул
Am           A7              Dm     Dm/С
В голубой дали, как дым, растаял
E          E7
Горы разведу руками
A7           Dm
Трижды землю обойду
E            E7  E7-9  Am
Да найду ль её  – не знаю
 
Dm           Am
Выйду, дому поклонюсь
E7-9        Am
Молча Богу помолюсь
Dm         Am
И пойду искать края
E            Am
Где живёт любовь моя
Dm           E     Dm
Где живёт любовь моя


Проигрыш: Dm Am E7-9 Am | Dm Am E E

   Dm         Am        E7-9       Am       Dm          Am         E            E            
e|----------------7-8----------------------------------------------7----------------12-|
B|----------8-10------------------------------------------------------10-9-------------|
G|-7--9-10--------------10--9-9--7-7--9-9---7--9-10--7------7--9------------10--9------|
D|------------------------------------------------------10-----------------------------|
A|-------------------------------------------------------------------------------------|
E|-------------------------------------------------------------------------------------|

Dm           Am
Выйду, дому поклонюсь
E7-9        Am
Молча Богу помолюсь
Dm         Am
И пойду искать края
E            Am
Где живёт любовь моя
Dm           E     Am
Где живёт любовь моя
Наверх