Аккорды Вася Обломов - Я шагаю по Москве

Добавлено: @romashka
Дата добавления: 21 Февраля 2014г.
Рейтинг:
0.0
Просмотров: 668
Транспонировать - +
Вступление:
   Am           Am     Dm           Am  
E|---8--7-7--5-5------------------8--7-7--5-5----------|
B|-5-------------5------5-------5-------------5------5-|
G|------------------7-5--------------------------7-5---|
D|-----------------------------------------------------|
A|-----------------------------------------------------|
E|-----------------------------------------------------|
 
       Dm     Am         E             Am     
E|---8-----7---7-5-------------------------------------|
B|-5-----5----------5-1-----5-5--3-3--1-1-0---1-0------|
G|------------------------------------------------2----|
D|-----------------------------------------------------|
A|-----------------------------------------------------|
E|-----------------------------------------------------|
 Am                      
А я иду, шагаю по Москве,
Передо мной долбят лёд таджики,
Через киевский мост, мимо хамсуда,
Где умеют находить улики

     Dm                  
И я иду, шагаю по Москве,
А мне так хотелось проехать!
        Am                      
Но в глазах стоит Садовое кольцо,
Оно стоит - и не может ехать

       Dm                           
В Москву приезжают со всех городов,
Со всех республик народы
  Am                         
И долго тянутся друг за другом
Годы плохой погоды

        E                             
В Москву приезжают и остаются жить,
И некуда ехать дальше
Am                          
Москва не верит слезам,
Потому что здесь итак достаточно фальши

Припев:

 Am                      
А я иду, шагаю по Москве,
 Dm                   Am
А я иду, шагаю по Москве!
   Dm               
Здравствуй, Москва,
   Am                
Здравствуй, Москва!
       E              Am
  А я иду, шагаю...


А я иду, шагаю по Москве,
Периодически здесь слышатся взрывы
Здесь жертвы терактов, главы правительств,
И очень дорогие квартиры

Сдаётся в аренду за дорого
Место в бетонной коробке
Умрёт пациент в машине "скорой помощи",
Которая застряла в пробке

Откроются офисы на месте дома,
Построенного в девятнадцатом веке
На стройке работают от звонка до звонка,
И там же живут, узбеки

В съёмных квартирах проходит жизнь,
И вот исчезают надежды
В Москве тяжело и бессмысленно жить,
Москва не такая, как прежде...

Припев.

Окончание:
   Am           Am           Dm           Am          
E|---8--7-7--5-5--------------------------8--7-7--5-5-----------------------|
B|-5-------------5------5---5-6-5---5---5-------------5------5---5-6-5---5--|
G|------------------7-5-----------7----------------------7-5-----------7----|
D|--------------------------------------------------------------------------|
A|--------------------------------------------------------------------------|
E|--------------------------------------------------------------------------|
 
      Dm       Am         E             Am    
E|---8-7----7-----7-5-------------------------------------|
B|-5------5-----5------5-1-----5-5--3-3--1-1-0---1-0------|
G|---------------------------------------------------2----|
D|--------------------------------------------------------|
A|--------------------------------------------------------|
E|--------------------------------------------------------|
Наверх