Аккорды Виктор Цой - Атаман

Добавлено: @romashka
Дата добавления: 08 Ноября 2020г.
Рейтинг:
0.0
Просмотров: 13
Транспонировать - +
Вступление:
e|---------------------------------------------------|
B|---------------------------------------------------|
G|--------------8------------------------------------|
D|----8-6-8----------8-6-8--6------9--------8--8-6-8-|
A|-6---------6-----------------9-8----6--8-----------|
E|---------------------------------------------------|

D#m      G#m          A#m(VI)  D#m
Ох, смотри не промахнись, атаман,
          G#m       A#m(VI)  D#m
Чтоб не дрогнула рука невзначай.
        G#m        A#m(VI) D#m
Да смотри не заряди холостых,
       G#m        A#m(VI) D#m
Да не думай о петле  палача.

      G#m         A#m(VI) D#m
А не то наступит ночь,   ночь,
     G#m          A#m(VI) D#m
И уйдут от нас поля  и леса,
      B              C#      F#
Перестанут петь для нас небеса,
      G#m       A#m(VI) D#m
И послушаем земли  голоса.


     G#m          A#m(VI) D#m
А потом наступит день,   день,
         G#m             A#m(VI)   D#m
Каждый скажет: «То, что было - не помню».
      B             C#       F#
И пойдём мы под пастушью свирель
          G#m A#m(VI)  D#m
Дружным стадом     на бойню.

          G#m          A#m(VI)   D#m
А Бог терпел и нам велел: «потерпи»…


Проигрыш: D#m | D#m | G#m | A#m(VI)
          D#m | D#m
e|--------------------------------------------------------------------------------|
B|---------------------------------------6-------------7--------------------------|
G|------------8------------------------------------------------------8------------|
D|-6-8-4-6-------6-8-4-6------6-8-4-6-------6-8-4-6-------6-8-4-6-------6-8-4-6---|
A|---------6-------------6------------6-------------6-------------6-------------6-|
E|--------------------------------------------------------------------------------|

         G#m          A#m(VI)  D#m
Так смотри не промахнись, атаман,
          G#m       A#m(VI)  D#m
Чтоб не дрогнула рука невзначай.
        G#m        A#m(VI) D#m
Да смотри не заряди холостых,
       G#m        A#m(VI) D#m
Да не думай о петле  палача.


Проигрыш: D#m | D#m | G#m | A#m(VI) [x4]
          D#m
e|---------------------------------------------------|
B|---------------------------------------------------|
G|--------------8------------------------------------|
D|----8-6-8----------8-6-8--6---------------8--8-6-8-|
A|-6---------6-----------------9-8----6--8-----------|
E|---------------------------------7-----------------|
Наверх