Аккорды Виктор Цой - Жёлтые воды

Добавлено: @romashka
Дата добавления: 27 Декабря 2020г.
Рейтинг:
0.0
Просмотров: 51
Транспонировать - +
Intro:
e|--------------------------------------------------------------------------|
B|--------------1-----------------------------------------------------------|
G|--2--2--0--2----------4--4--2--0---------0--0-----0--0--4--2--------------|          
D|----------------------------------2------------2-----------------2----0--2|      3 раза
A|--------------------------------------------------------------------------|
E|--------------------------------------------------------------------------|

e|-------------------------------------------------|
B|--------------1----------------------------------|
G|--2--2--0--2----------4--4--2--0--0--4--2--------|
D|-------------------------------------------------|
A|-------------------------------------------------|
E|-------------------------------------------------|

Куплеты:

Am
Я бы хотел увидеть желтую воду
       C                G
Но для этого я слишком поздно рожден
Am
Я хотел бы стать деревом странной породы
        C                  G
Но мой город металлом и льдом осажден

Dm
Желтые Воды
G 
Желтое солнце
Em               Am
Желтые странные дни
Dm
Желтые Воды
G                Am
       странные дни
e|---------------------------------------------------------------------------------------------------|
B|---------------------------------------------------------------------------------------------------|
G|--2-----2--2---------------2----2--2---------------------------------------------------------------|
D|--------------2--2--2--2--------------2--2--2--0-------------------------2------0--0--2--0---------|         2-раза
A|-----------------------------------------------------3----3--3--3--3--3----------------------------|
E|---------------------------------------------------------------------------------------------------|


Dm
Желтые Воды
G 
Желтое солнце
Em               Am
Желтые странные дни
Dm
Желтые Воды
G                Am
       странные дни



e|------------------------------------------------3--5----------|
B|--------------1-----------------------------------------------|
G|--2--2--0--2----------4--4--2--0--0--4--2---------------------|
D|--------------------------------------------------------------|
A|--------------------------------------------------------------|
E|--------------------------------------------------------------|

Бой : ↓ ↓ ↑ ↑ ↓ ↑ .
Наверх