Аккорды Виктор Цой - На кухне (Кухня)

Добавлено: @romashka
Дата добавления: 02 Апреля 2021г.
Рейтинг:
0.0
Просмотров: 54
Транспонировать - +
Вступление:

e|-----3-----2-----0--------|
H|--3-----1-----0--------3--|
G|--------------------2-----|
D|--------0-----------0-----|
A|--------------------------|
E|--3-----------3-----------|


Далее на слова, песня играется следующим перебором:

    G           Hm             C          Am
e|--------------------------|------------------------0--|
H|--------0-----------------|--------1-----------0-1----|
G|-----0-----0--------4-----|-----0-----0-----2---------|
D|-----------------4-----4--|-----0-----0-----2---------|
A|--------------2-----------|--3-----------0------------|
E|--3-----------------------|---------------------------|
                                            
    Em          D              Hm           
e|--------------------2-----|--------------------3-3-2-2-|
H|--------0--------------3--|--------3-------------------|
G|-----0-----0-----2--------|-----4-----4-----4----------|
D|--------------0-----------|----------------------------|
A|--------------------------|--2-----------2-------------|
E|--0-----------------------|----------------------------|...

G     Hm     C       Am
  Ночь. День. Спать лень.
Em      D  Hm
  Есть дым,  чёрт с ним.
G      Hm C          Am
  Сна нет, есть сон лет.
Em   D Hm
  Кино,  кончилось давно.

G      Hm C     Am
  Мой дом, я в нём.
Em   D  Hm
  Сижу,   пень пнём.
 G       Hm C     Am
  Есть свет, сна нет.
Em      D  Hm
  Есть ночь, уже уходит прочь.

G        Hm C       Am
  Стоит таз, горит газ,
Em    D  Hm
  Щелчок   и газ погас.
 G       Hm C       Am
  Пора спать в кровать,
Em     D   Hm           G Hm C Am Em D Hm Em
  Вставать,  завтра вставать.
Наверх