Аккорды Виктор Цой - Камчатка

Добавлено: @vitos
Дата добавления: 08 Сентября 2013г.
Рейтинг:
0.0
Просмотров: 689
Транспонировать - +
Вступление:

1-----0------------------0----------------------
2---8---8--------------8---8--------------------
3-------------------------------------9---------
4----------------------------------------9------
5|-------10------------------10-----------------7-----------
6|-10-10----10---------10-10----10----------7-7---------7-7-

------------------
------------------
--9---------------
----9----7-9-7-6--
7-----------------
------------------


Проигрыш:

1|--0-0--12-12--0-0-12-12--4-4-9-9--4-4-9-9--
2|--0-0--12-12--0-0-12-12--5-5-9-9--5-5-9-9--
3|--1-1---------1-1--------6-6------6-6------
4|--2-2---------2-2--------6-6------6-6------
5|--2-2---------2-2--------4-4------4-4------
6|--0-0---------0-0--------4-4------4-4------

(Припев:)
1-----------------------------------------------
2-----------------------------------------------
3|-------1-1-1-------------------------1-1-1----------------
4|-2-4-2-------4-2-2-2-2-4-4-2---2-4-2-------4-2-2-2-2-4-4-2
5-----------------------------------------------
6-----------------------------------------------

(Куплет:)
1-----------------------------------------------
2-----------------------------------------------
3|---1-2-2-2-2--2-2-1--------------1-1-1-1----------1-2-2-2-
4|-4------------------4-2-4---2-4----------4-1-1--4---------
5-----------------------------------------------
6-----------------------------------------------

2--2-2-1--------------
---------4-2-2-4-2----
----------------------
----------------------

(Окончание:)
31---------------
4|-2-4-2-4-2----2-4-2-4-2-2--


 E        C#m        A       H7
О-o, это странное место Камчатка,
 E        C#m        A       H7
О-o, это сладкое слово "Камчатка".
 A                          H7
Но на этой земле я не вижу тебя,
 E                  C#m
Я не вижу твоих кораблей,
 A                          H7
Я не вижу реки, я не вижу моста,
 E
Ну и пусть... 


О-o, это странное место Камчатка,
О-o, это сладкое слово "Камчатка".
Я нашел здесь руду, я нашел здесь любовь,
Я пытаюсь забыть, забываю и вновь
Вспоминаю собаку, она, как звезда,
Ну и пусть...


О-o, это странное место Камчатка,
О-o, это сладкое слово "Камчатка".
Я не вижу здесь их, я не вижу здесь нас,
Я искал здесь вино, а нашел третий глаз,
Мои руки из дуба, голова из свинца,
Ну и пусть...
Наверх