Аккорды «Виктор Зинчук»

Виктор Зинчук
Виктор Иванович Зинчук (род. 8 апреля 1958) — российский рок-музыкант, гитарист-виртуоз, композитор, аранжировщик, Заслуженный артист России. Ассоциированный профессор международной академии наук Сан-Марино, доцент Московского государственного университета культуры и искусств. Помимо своей музыки, сделал много аранжировок классической музыки: И. С. Баха, Н. Паганини, М. Глинки, Дж. Верди, Дж. Гершвина. В 1976 году Виктор поступил в музыкальную школу для одарённых детей по классу классической… Читать полностью... Виктор Иванович Зинчук (род. 8 апреля 1958) — российский рок-музыкант, гитарист-виртуоз, композитор, аранжировщик, Заслуженный артист России. Ассоциированный профессор международной академии наук Сан-Марино, доцент Московского государственного университета культуры и искусств. Помимо своей музыки, сделал много аранжировок классической музыки: И. С. Баха, Н. Паганини, М. Глинки, Дж. Верди, Дж. Гершвина. В 1976 году Виктор поступил в музыкальную школу для одарённых детей по классу классической гитары в России и проучился 4 года. В 1987 году, поработав 7 лет с различными коллективами, Зинчук начал сольную карьеру. Именно в это время он был признан лучшим гитаристом, согласно данным опроса Молодёжного канала Всесоюзного радио. В 1991 году он выиграл большой музыкальный фестиваль в Швейцарии и до сих пор достойно играет на многих других фестивалях. В 1995 году окончил с отличием Московский государственный университет культуры и искусств. Виктор Зинчук имеет следующие титулы и награды: Заслуженный артист России (2005) Золотая гитара России Кавалер ордена «За служение искусству» Состоит в книге рекордов России Рекорд был установлен в 2001 году: исполнение своей вариации музыкального произведения «Полет шмеля» Римского-Корсакова в темпе 270 ударов в минуту - при этом, по утверждению самого Зинчука, он извлекал 20 нот в секунду. В 2002 был включен в издание «Гиннес. Книга рекордов» (Издательство «АСТ», 2002 — с. 264). Скрыть...
Популярные аккорды Виктор Зинчук:
алфавиту | просмотрам | случайно
  • Вступление:  (Аккомпанемент играет что-то вроде аккорда Am в
    VII позиции, тех кто не знает, он выглядит так:
    
    E|-8--(помутите что нибудь с арпеджио, и всё будет классно)|
    B|-10------------------------------------------------------|
    G|-9-------------------------------------------------------|
    D|-7-------------------------------------------------------|
    A|-x-------------------------------------------------------|
    E|-x-------------------------------------------------------|
    
    E|--0-0-5-7-8-5--10-----|--10-10-8-7-5---------|
    B|------------------6---|--------------8-6-5---|
    G|----------------------|--------------------5-|
    D|----------------------|----------------------|
    A|----------------------|----------------------|
    E|----------------------|----------------------|…
  • E|-------------------------------------------|
    B|--------5-6-5------------------------------|
    G|--2-5-7-------7-4-0--2-4-5-2-2--1--2-4-1---|
    D|-----------------------------------------2-|
    A|-------------------------------------------|
    E|-------------------------------------------|
    
    E|-------------------------------------------|
    B|--------5-6-5------------------------------|
    G|--2-5-7-------7-4-0--2-4-5-4-2-1---1-2-2-2-|
    D|---------------------------------4---------|
    A|-------------------------------------------|
    E|-------------------------------------------|
    
    Я…
  • 1 part:
    E|-------------------------------------------------|
    B|---7---7p5---7~~-12------------------------------|
    G|*--------------------12-/-9--7-6-7-6h7p6--4-/2-2-|
    D|*------------------------------------------------|
    A|-------------------------------------------------|
    E|-------------------------------------------------|
    
    E|-----------------------------------------------------------|
    B|--10~~----------5-4-/10-8-8~~-------3-2-/8-7-7~~--9-10/3-3-|
    G|-------11--5-4---------------9/4-2-------------------------|
    D|-----------------------------------------------------------|
    A|-----------------------------------------------------------|
    E|-----------------------------------------------------------|
    
    E|-------------------------------------------------------|
    B|--5-7-7-5--3-2-0--0h2-3-3~~-2-0------------------------|
    G|--------------------------------2~~------------------*-|
    D|-----------------------------------------------------*-|
    A|-------------------------------------------------------|
    E|-------------------------------------------------------|…
  • E||---0-5-8-7-5-8-5-7-5-*1-3-0-*-0-------
    B|----------*------*---4-3---
    G|----------*------*---------
    D|----------*------*---------
    A|----------*------*---------
    E|----------*------*---------
    E||-----1-5-7----1-4-5------3-1-0-3-1-1-0-0-------
    B||---3--------3----------1-----------------------
    G|----------2-------------------1-2---
    D-------------------------
    A-------------------------
    E-------------------------
    E||--5-5-4--4-4--4--7-5-3-------------------------
    B-6-5---5-8-5-3--3-6-3-5--
    G-------------------------
    D-------------------------
    A-------------------------
    E-------------------------…
  • E||------------------|-----------------|-----------------|-------------||
    B||------------------|-----------------|-----------------|-------------||
    G||*-----------------|--9--------------|-----------------|--9/--------*||
    D||*--7---7-7h10h9h7-|-----------------|--7---7-7h10h9h7-|-------2----*||
    A||------------------|------7-7h11h9h7-|-----------------|-------------||
    E||------------------|-----------------|-----------------|-------------||…
  • E||----------------------|-----------------------------|
    B||----------------------|-----------------------------|
    G||------------------5-4-|-----------------------------|
    D||--------------0-5-----|--7--5-----------------------|
    A||----------------------|--------7--3--5-7-5-3--------|
    E||----------------------|----------------------5--3-5-|…
  • s-(staccato)
        s  s  s
    E|---------------------
    B|-12-10-12------------
    G|----------11-9Н11----
    D|------------------9--      2 раза
    A|---------------------
    D|---------------------
    
    E|----9-10--9h10-9-9--9-7h9-7-7-7-5h7-5-5-…
  • t-tapping
    h-hammer on
    p-pull off
    s-legato slide
    
    e||--------------------------------------||---------------------------------------|
    B||--------------------------------------||---------------------------------------|
    G||-t9p8p7p6p5-t10-t9p8-t9p8p7p6p5h6h7h8-||-t9p8p7p6-t7p6p5p4s5h6h7h8-t9-t10-t9p8-|
    D||--------------------------------------||---------------------------------------|
    A||--------------------------------------||---------------------------------------|
    E||--------------------------------------||---------------------------------------|
    e|--------------------------------------||-----------------------------------------||
    B|---------------------------------h8h9-||-t10p9p8p7p6-t11-t10p9-t10p9p8p7p6h7h8h9-||
    G|-t9p8p7p6-t7p6p5p4s5h6h7h8-t9-t11-----||-----------------------------------------||
    D|--------------------------------------||-----------------------------------------||
    A|--------------------------------------||-----------------------------------------||
    E|--------------------------------------||-----------------------------------------||
    e||------------------------------------------||
    B||-t10p9p8p7-t8p7p6p5s6h7h8h9-t10-t11-t10p9-||
    G||------------------------------------------||
    D||------------------------------------------||
    A||------------------------------------------||
    E||------------------------------------------||…
  • E|---------2-3-2-3-5-5/7~-10-10-7~-10/12/10-7~-7-5-3-5-3-0-|
    B|-0-5-4-5-------------------------------------------------|
    G|---------------------------------------------------------|
    D|---------------------------------------------------------|
    A|---------------------------------------------------------|
    E|---------------------------------------------------------|
    
    E|---------2-3-2-3-5-5/7~-10-10-7~--7-10-12-10-12-10-7~-|
    B|-0-5-4-5----------------------------------------------|
    G|------------------------------------------------------|
    D|------------------------------------------------------|
    A|------------------------------------------------------|
    E|------------------------------------------------------|
    
    E|-7-5-3-5-3-0-|
    B|-------------|
    G|-------------|
    D|-------------|
    A|-------------|
    E|-------------|
    
    E|--7-12--10-12-10-12-10-12--12-15-12-10--10-12-10-7-|
    B|---------------------------------------------------|
    G|---------------------------------------------------|
    D|---------------------------------------------------|
    A|---------------------------------------------------|
    E|---------------------------------------------------|…
  • Tempo de marcha
    E|------++---------------------------------------------|
    B|------++---------------------------------------------|
    G|------++---------------------------------------------|
    D|--2/7-++--9p7-9h11--11p9-7h11--9p7--9h11-11--9h11-11-|
    A|------++---------------------------------------------|
    E|------++---------------------------------------------|…
  • E|--------------------------------|
    B|--------------------------------|
    G|----9-11-12~-11-9-7~--9/11/9-9~-|
    D|-9-------------------9----------|
    A|--------------------------------|
    E|--------------------------------|
    2 раза
    
    E|------------------------------------|
    B|---10-12-13~-12-13-15-13~-12-10-12~-|
    G|-9----------------------------------|
    D|------------------------------------|
    A|------------------------------------|
    E|------------------------------------|
    
    E|--------------------------------|
    B|--------------------------------|
    G|----9-11-12~-11-9-7~--9/11/9-9~-|
    D|-9-------------------9----------|
    A|--------------------------------|
    E|--------------------------------|
    
    E|-----------------------------------------------------|
    B|-12-12-----------------------------------------------|
    G|-------14-14--12-12-11--11-9-12~-10-9-7~---9/11/9-9~-|
    D|-----------------------------------------9-----------|
    A|-----------------------------------------------------|
    E|-----------------------------------------------------|…
  • E|--7--10-7--------------------|-------------------------------|
    B|----------7--12-7------------|-------------------------------|
    G|------------------7--11-7----|----4-7-4-6-4-6-4---6-9-6-7----|
    D|--------------------------9--|--4---------------7----------9-|
    A|-----------------------------|-------------------------------|
    E|-----------------------------|-------------------------------|
    
    E|-7--10-7----------------------|----------------7-------------|
    B|---------7--12-7--------------|------------------------------|
    G|-----------------7--11-7------|--7-6-7--7-6-7-----7--7-9-7-6-|
    D|-------------------------9----|------------------------------|
    A|------------------------------|------------------------------|
    E|------------------------------|------------------------------|
    
    E|---------------10--------------|
    B|-7-6-7--7-6-7------7--7-9-7-6--|
    G|-------------------------------|
    D|-------------------------------|
    A|-------------------------------|
    E|-------------------------------|
    
    E|---------------------------------------|
    B|----7-10-7-9-7-9-7----9-12-9-10-9-10-9-|
    G|--6----------------10------------------|
    D|---------------------------------------|
    A|---------------------------------------|
    E|---------------------------------------|
    
    E|----------------------------9----------10-------|
    B|----10----------12------------------------------|
    G|-11----11-10-11----11-10-11---11-10-11----11-10-|
    D|------------------------------------------------|
    A|------------------------------------------------|
    E|------------------------------------------------|
    
    E|----10-9----9--------------------------|
    B|---------12---10-9----10--9-10-9-------|
    G|-11----------------11------------11----|
    D|---------------------------------------|
    A|---------------------------------------|
    E|---------------------------------------|
    
    E|--7-7-10-7---------------------|
    B|-----------7-7-12-7------------|
    G|--------------------7-7-11-7---|
    D|-----------------------------9-|
    A|-------------------------------|
    E|-------------------------------|
    
    E|-------------------------------|
    B|-------------------------------|
    G|---4-7-4-6-4-6-4---6-9-6-7-----|
    D|-4---------------7----------9--|
    A|-------------------------------|
    E|-------------------------------|
    
    E|--7--10-9-7------------------------|
    B|------------7--12-10-7-------------|
    G|-----------------------7--11-9-7---|
    D|---------------------------------9-|
    A|-----------------------------------|
    E|-----------------------------------|
    
    E|---------------7--------------|
    B|------------------------------|
    G|-7-6-7--7-6-7-----7--7-9-7-6--|
    D|------------------------------|
    A|------------------------------|
    E|------------------------------|
    
    E|----------------10-------------|
    B|--7-6-7--7-6-7------7--7-9-7-6-|
    G|-------------------------------|
    D|-------------------------------|
    A|-------------------------------|
    E|-------------------------------|
    
    E|--------------------------------------|
    B|---7-10-7-9-7-9-7----9-12-9-10-9-10-9-|
    G|-6----------------10------------------|
    D|--------------------------------------|
    A|--------------------------------------|
    E|--------------------------------------|
    
    E|----------------------------9----------10-------|
    B|----10----------12------------------------------|
    G|-11----11-10-11----11-10-11---11-10-11----11-10-|
    D|------------------------------------------------|
    A|------------------------------------------------|
    E|------------------------------------------------|
    
    E|----10-9----9--------------------------|
    B|---------12---10-9----10--9-10-9-------|
    G|-11----------------11------------11----|
    D|---------------------------------------|
    A|---------------------------------------|
    E|---------------------------------------|
    
    E|----------------------------|
    B|--7--10-7-------------------|
    G|----------6--11-6-----------|
    D|------------------7--11-7---|
    A|--------------------------9-|
    E|----------------------------|
    
    E|--------------5------------|----------------------------|
    B|-------5--0-7----8-7-8--5--|--8--12-8-------------------|
    G|-5--4----------------------|----------9--12-9-----9-6---|
    D|---------------------------|------------------11------7-|
    A|---------------------------|----------------------------|
    E|---------------------------|----------------------------|
    
    E|---------------------------------|
    B|-----7-------------5-8-5-7-5-7-5-|
    G|---7---7-9-7-9-7-6---------------|
    D|-7-------------------------------|
    A|---------------------------------|
    E|---------------------------------|
    
    E|--------------------5-------7-----|
    B|----7-------8---------------------|
    G|--7---7-6-7---7-6-7---7-6-7---7-6-|
    D|----------------------------------|
    A|----------------------------------|
    E|----------------------------------|
    [p.m.....]
    
    E|---7-5---5-------------------|----------------10-------------|
    B|-------8---7-5---7--5-7-5----|--7-5-7--7-5-7------7--7-8-7-5-|
    G|-7-------------7----------7--|-------------------------------|
    D|-----------------------------|-------------------------------|
    A|-----------------------------|-------------------------------|
    E|-----------------------------|-------------------------------|
    
    E|---------------9---------------|--7--10-7---------7----------|
    B|-------------------------------|----------10-8------10-8-7---|
    G|-9-7-9--9-7-9-----9--9-11-9-7--|---------------------------9-|
    D|-------------------------------|-----------------------------|
    A|-------------------------------|-----------------------------|
    E|-------------------------------|-----------------------------|
    
    E|--------------------------------|--------------------------2-|
    B|-8-7-5-----5-8-5----------------|---------2-5-3-2-3--2-3-5---|
    G|-------7-5-------5-4-5-4-3------|-----4-3--------------------|
    D|----------------------------4-5-|--4-------------------------|
    A|--------------------------------|----------------------------|
    E|--------------------------------|----------------------------|
    
    E|------7-----------------|
    B|-3/7-----7--5-----------|
    G|--------------7-6-7-6-4-|
    D|------------------------|
    A|------------------------|
    E|------------------------|…
Наверх